Song name
# A B C D E F G H I J K L M N O P Q R S T U V W X Y Z

Caliber - Outcast tab

-------------------------------------------------------------------------------
			     OUTCAST - Caliber
-------------------------------------------------------------------------------

By John Schwind
Intro/Clean
E-------------------------------------------------------|
B-------------------------------------------------------|
G-----2-------0-------0---------0-----------------------|
D---2---2---2---2---4---4-------------------------------|
A-0-------3-------5----------5----4-----------3/2-------|
E---------------------------------------3/5-------------|Repeat 2x


E---0-----3----3--------------------|
B---0-----3----3--------------------|
G---2-----0----0--------------------|
D---2-----2----4--------------------|
A---0-----3----5------------3--5--3-|
E--------------------0h3h5----------|Repeat 2x

  W/Distortion
E--------------------------|
B--------------------------|
G--2----5----0------5------|
D--2----5----4---5--5------|
A--0----3----5---5--3------|
E----------------3---------|

This song is not yet completed. I\\\'m currently working on a solo. 

Tap to rate this tab
# A B C D E F G H I J K L M N O P Q R S T U V W X Y Z