Song name
# A B C D E F G H I J K L M N O P Q R S T U V W X Y Z

Califone - Dont Let Me Die Nervous tab

Califone – Don’t Let Me Die Nervous

Standard Tuning – Capo 2nd Fret
(Tabbing relative to capo)

      D5
||---|---|---|
||---|---|-x-|
||---|-x-|---|
||---|---|---|
||---|---|---|
||---|---|---|

First Lick – Keep 1st and 3rd fingers on chord

|----------------------------------------|
|---------3--3----------3---------3------|
|---------2--2—2h4--4---2--2------2------|
|---0h3------------------------0---------|
|----------------------------------------|
|----------------------------------------|


Second Lick – Keep 2nd and 4th fingers on chord
(Notes more prominent than chords)

|-------------------------------------------------------------------------------------|
|-------3-3-------3-3--------3-3-3-3-3-3--------3-3-3-3-3-3--------3-3-3-3-3-3--------|
|-------2-2-------2-2--------2-2-2-2-2-2--------2-2-2-2-2-2--------2-2-2-2-2-2--------|
|--2---------0-----------------------------------------------0------------------------|
|------------------------3--------------------2---------------------------------------|
|-------------------------------------------------------------------------------------| 

http://www.perishablerecords.com/califone.html
Tap to rate this tab
 
# A B C D E F G H I J K L M N O P Q R S T U V W X Y Z