Song name
# A B C D E F G H I J K L M N O P Q R S T U V W X Y Z

Caligola - Forgive Forget tab

-----------------------------------------------------------------------------
                     Forgive Forget - Caligola
-----------------------------------------------------------------------------
Tabbed by: Lupus2012

Chords: Cm  Bb  G#  G

Tuning: standard

Intro
e|--------3---------------3----------4-6-8-6-4-3----------------------------|
B|---3-h4---6-4-3----3-h4---6-4-3-------------------4----------3------------|
G|-5---------------5---------------5----------------------------------------|
D|--------------------------------------------------------------------------|
A|--------------------------------------------------------------------------|
E|--------------------------------------------------------------------------|

e|-----------6-8----------------------------6-8-----7-----------------------|
B|---3/4-6/8---------4-4-4-6--4-----3/4-6/8---------------------------------|
G|-5--------------5---------------5-----------------------------------------|
D|--------------------------------------------------------------------------|
A|--------------------------------------------------------------------------|
E|--------------------------------------------------------------------------|

Refrain
e|-----------6-8------------------------------------------------------------|
B|---3/4-6/8--------6-6-6-6-6-4--6-6-6-6-6-4--------------------------------|
G|-5------------------------------------------------------------------------|
D|--------------------------------------------------------------------------|
A|--------------------------------------------------------------------------|
E|--------------------------------------------------------------------------|

Verse
e|-----------------------------------------------------------------------|
B|-8-8-6-6-6-6--6-6-6-6-8----8-8-6-6-6-6--6-6-6-6-8----------------------|
G|-----------------------------------------------------------------------|2X
D|-----------------------------------------------------------------------|
A|-----------------------------------------------------------------------|
E|-----------------------------------------------------------------------|

e|--------------------------------------------------------------------------|
B|-4-4-4-6-6----4-4-4-6-6----4-4-4-4-4-4----4-3-3-3-3-3---------------------|
G|--------------------------------------------------------------------------|
D|--------------------------------------------------------------------------|
A|--------------------------------------------------------------------------|
E|--------------------------------------------------------------------------|

Solo (at about 2:00 minutes of the song)
e|--------------11-------------10-h11-10------------------------------------|
B|--------11-13----13--------------------13-11-13-11----11------------------|
G|-10-h12--------------------------------------------12----12-10-8----------|
D|--------------------------------------------------------------------------|
A|--------------------------------------------------------------------------|
E|--------------------------------------------------------------------------|

e|---------------------------------------------------6-8--------------------|
B|---------6----6--------------------------------6-8------------------------|
G|-3-/5-7-8----8---8-7-5------5-7-8-7---3-/5-7-8----------------------------|
D|--------------------------------------------------------------------------|
A|--------------------------------------------------------------------------|
E|--------------------------------------------------------------------------|


************************************

| /   slide up
| h   hammer-on

************************************
Tap to rate this tab
 
# A B C D E F G H I J K L M N O P Q R S T U V W X Y Z