Song name
# A B C D E F G H I J K L M N O P Q R S T U V W X Y Z

Call Me No One - Time Machine tab

Call Me No One: Time Machine

Transcribed by: mysticguitar77

YouTube Channel: MysticGuitar77

Date last modified: April 12, 2014

Tuning: Modified Drop B (B,F#,B,E,F#,C#)

Notes: Amazing song that was just a bonus track if you got the deluxe edition
       of their album, Last Parade. This song was originally done by Clint 
       Lowery's solo band, Hello Demons Meet Skeletons, on an acoustic, but
       he re-did it for Call Me No One on an electric with a little more
       instrumentation, but it's basically exactly the same as the original
       version. I've been trying to learn this song since I heard it and I
       think, nearly 2 years later, that I finally got all the parts down
       fairly close to how it's played. It's nowhere near 100%, it's really
       hard to hear the guitar over the vocals in the chorus, but this is
       my interpretation of what I hear. I'm basically tabbing this for
       myself for future reference in case I forget it since I know not
       a lot of people know of this song. Another song that'll end up as a 
       lost gem by Clint Lowery. But, for those who want to learn this song,
       hopefully this will set a good guideline for you.
       Also, note the tuning, it's standard Drop B except the 2nd string is
       tuned down an additional full step.

Riff 1
C#|---------------------------------|
F#|---------------0---------------0-|
 E|---------------------------------|
 B|-------2---3/5---------2-----6---|
F#|---8\5-------------8\5---4/5-----|
 B|-0-------0-------0---------------|

Play Riff 1 x4

Riff 2   "Another golden moment gone..."
C#|-------------------------0-------------0-----0---------------0---|
F#|-------0----0-------0------0-------0-----0--------------0------0-|
 E|-----3----0-------0----0-------------0-----0----------9----9-----|
 B|---5-------------------------------------------------------------|
F#|----------------3---------------10-----------------10------------|
 B|-0------------3--------------10-----------------10---------------|

C#|-------------------------0-----------0-----0--------------0---|
F#|-------0----0-------0------0-----0-----0-------------0------0-|
 E|-----3----0-------0----0-----------0-----0---------9----9-----|
 B|---5----------------------------------------------------------|
F#|----------------3--------------7----------------10------------|
 B|-0------------3--------------7---------------10---------------|

Play Riff 2 x2   "So my life's not perfect, not at all..."

Riff 3   "...where you've gone..."
C#|-0--0--0--0--0--0--0--0-|
F#|-0--0--0--0--0--0--0--0-|
 E|-7--7--7--7--7--7--7--7-|
 B|-7--7--7--7--7--7--7--7-|
F#|-5--5--5--5--5--5--5--5-|
 B|-5--5--5--5--5--5--5--5-|

Riff 4   "It's simple, wait long enough for..."
C#|-----------------|
F#|-------0-------0-|
 E|-----3-------2---|
 B|---5-------5-----| x2
F#|-----------------|
 B|-0-------0-------|

C#|-----------------|
F#|-------0-------0-|
 E|-----3-------2---|
 B|---5-------5-----| x2
F#|-4-------4-------|
 B|-----------------|

C#|-----------------|
F#|-------0-------0-|
 E|-----3-------2---|
 B|---5-------5-----| x2
F#|-3-------3-------|
 B|-----------------|

C#|---------0-----0--------0-------0-|
F#|-----0-----0----------0-------0---|
 E|-------0-----0------0-------0-----|
 B|----------------------------------|
F#|---3------------------------------|
 B|-3----------------5-------7-------|

Play Riff 4 x2   "I feel like, like our tomorrow..."
Play Riff 1 x2
Play Riff 2 x2   "Another season gone under..."
Play Riff 3 x1
Play Riff 4 x2   "It's simple, wait long enough for..."
Play Riff 1 x2

Riff 5   "Make a choice, live or suffer..." (just chords)
C#|-0----0----0----0----0----0-------0----0----0-|
F#|-0----0----0----0----0----0-------0----0----0-|
 E|-7----9----5----5----7----9-------------------|
 B|-5----7----3----3----5----7----12---10----8---|
F#|-5----7----3----3----5----7----12---10----8---|
 B|-5----7----3----3----5----7----12---10----8---|

C#|-0----0----0----0--0-|
F#|-0----0----0----0--0-|
 E|-7----9----5----7--9-|
 B|-5----7----3----5--7-|
F#|-5----7----3----5--7-|
 B|-5----7----3----5--7-|

Play Riff 1 x2
Play Riff 4 x3   "It's simple, wait long enough for..."
Play Riff 1 x2   (end on the low open B string and let ring out)

Enjoy!!


Tap to rate this tab
 
# A B C D E F G H I J K L M N O P Q R S T U V W X Y Z