Song name
# A B C D E F G H I J K L M N O P Q R S T U V W X Y Z

Call Me When Im 18 - Dumbstruck tab

I'm not sure for the song but sounds right to me.
Sorry i don't have the solo part :[

Call Me When Im 18 - Dumbstruck

Tabbed by: Adam
Email: Guitarfreak@hotmail.com

Tuning:Standard
Verse:
e|----------------------------------------------------------------------------|
B|----------------------------------------------------------------------------|
G|---8------------------------------------------------------------------------|
D|---8---x4---8-------6-------------------------------------------------------|
A|---6--------8-x4----6--x12--------------------------------------------------|
E|------------6-------4-------------------------------------------------------|

Chorus:
e|---------------------------|-----------------------------------------------|
B|---------------------------|--------------------------------------------|--|
G|---8-----------------------|--8-----------------5--------------------------|
D|---8---x4---8-------6------|--8-x4--8----6------5-x2--8--------------------|
A|---6--------8-x4----6--x12-|--6-----8x4--6-x12--3-----8-x2-----------------|
E|------------6-------4------|--------6----4------------6--------------------|

Verse:
e|----------------------------------------------------------------------------|
B|----------------------------------------------------------------------------|
G|---8------------------------------------------------------------------------|
D|---8---x4---8-------6-------------------------------------------------------|
A|---6--------8-x4----6--x12--------------------------------------------------|
E|------------6-------4-------------------------------------------------------|

Chorus:
e|---------------------------|-----------------------------------------------|
B|---------------------------|--------------------------------------------|--|
G|---8-----------------------|--8-----------------5--------------------------|
D|---8---x4---8-------6------|--8-x4--8----6------5-x2--8--------------------|
A|---6--------8-x4----6--x12-|--6-----8x4--6-x12--3-----8-x2-----------------|
E|------------6-------4------|--------6----4------------6--------------------|

Bridge:
e|---------------------------------------------------------------------------|
B|---------------------------------------------------------------------------|
G|------------------8--------------------------------------------------------|
D|-3-------6--------8-x2---8-------------------------------------------------|
A|-3-x2----6-x12----6------8-x2----------------------------------------------|
E|-1-------4---------------6-------------------------------------------------|


Solo


Verse:
e|----------------------------------------------------------------------------|
B|----------------------------------------------------------------------------|
G|---8------------------------------------------------------------------------|
D|---8---x4---8-------6-------------------------------------------------------|
A|---6--------8-x4----6--x12--------------------------------------------------|
E|------------6-------4-------------------------------------------------------|

Chorus:
e|---------------------------|-----------------------------------------------|
B|---------------------------|--------------------------------------------|--|
G|---8-----------------------|--8-----------------5--------------------------|
D|---8---x4---8-------6------|--8-x4--8----6------5-x2--8--------------------|
A|---6--------8-x4----6--x12-|--6-----8x4--6-x12--3-----8-x2-----------------|
E|------------6-------4------|--------6----4------------6--------------------|


http://www.myspace.com/callmewhenim18

http://www.youtube.com/watch?v=0X655x_bVYI

http://www.4shared.com/file/230554740/2f0d560/Dumbstruck_-_Call_Me_When_Im_1.html
Tap to rate this tab
# A B C D E F G H I J K L M N O P Q R S T U V W X Y Z