Song name
# A B C D E F G H I J K L M N O P Q R S T U V W X Y Z

Call To Preserve - Hope For The Fallen tab

Hope for the Fallen by Call to preserve
The tuning is in drop D

you can watch my cover here: http://www.youtube.com/watch?v=Sn93pkHmdao

Verse 1

e--------------------------------|
b--------------------------------|
g--------------------------------|
D-3h5-5-xxx-3h5-5-xxx---8-3-10-3-|
A-3h5-5-xxx-3h5-5-xxx---8-3-10-3-|
D-3h5-5-xxx-3h5-5-xxx---8-3-10-3-|

e--------------------------------|
b--------------------------------|
g--------------------------------|
D-3h5-5-xxx-3h5-5-xxx---8-3-10-6-|
A-3h5-5-xxx-3h5-5-xxx---8-3-10-6-|
D-3h5-5-xxx-3h5-5-xxx---8-3-10-6-|

                                                                                  x3

Chorus

e-----------------------------------------------|
b-----------------------------------------------|
g----------8-------5----------------------------|
D-5--------8--x16--5--x16-----------------------|                      x2
A-5--x16---6-------3----------------------------|
D-5---------------------------------------------|


Verse 2

e--------------------------------|
b--------------------------------|
g--------------------------------|
D-3h5-5-xxx-3h5-5-xxx---8-3-10-3-|
A-3h5-5-xxx-3h5-5-xxx---8-3-10-3-|
D-3h5-5-xxx-3h5-5-xxx---8-3-10-3-|

e--------------------------------|
b--------------------------------|
g--------------------------------|
D-3h5-5-xxx-3h5-5-xxx---8-3-10-6-|
A-3h5-5-xxx-3h5-5-xxx---8-3-10-6-|
D-3h5-5-xxx-3h5-5-xxx---8-3-10-6-|

bass only part

e-------------------------------|
b-------------------------------|
g-------------------------------|
D-8-3-10-6----------------------|
A-8-3-10-6----------------------|
D-8-3-10-6----------------------|

Chorus

e-----------------------------------------------|
b-----------------------------------------------|
g----------8-------5----------------------------|
D-5--------8--x16--5--x16-----------------------|                      x2
A-5--x16---6-------3----------------------------|
D-5---------------------------------------------|

Bridge

e--------------------------------------------------|
b--------------------------------------------------|
g-8------------5-----------8-----------------------|
D-8----(let ring)-5----(let ring)-8----(let ring)--|
A-6------------3-----------6-----------------------|
D--------------------------------------------------|

e--------------------------------------------------|
b--------------------------------------------------|
g-8------------5-----------3-----------------------|
D-8----(let ring)-5----(let ring)-3----(let ring)--|
A-6------------3-----------1-----------------------|
D--------------------------------------------------|

Breakdown

e-------------------------------|
b-------------------------------|
g-------------------------------|
D-5-3-5--0-0-0-0-8-0-0-5-0-0-3--|
A-5-3-5--0-0-0-0-8-0-0-5-0-0-3--|
D-5-3-5--0-0-0-0-8-0-0-5-0-0-3--|
                      *   *  *   *       *   *       *   *
e----------------------------------|
b----------------------------------|
g----------------------------------|
D-5-3-5--0-0-0-0-8-8-8-3-3-3-6-6-6-|
A-5-3-5--0-0-0-0-8-8-8-3-3-3-6-6-6-|
D-5-3-5--0-0-0-0-8-8-8-3-3-3-6-6-6-|
                      *  *   *   *                                                           x5

bridge 2

e--------------------------------------------------|
b--------------------------------------------------|
g-8------------5-----------3-----------------------|
D-8----(let ring)-5----(let ring)-3----(let ring)--|
A-6------------3-----------1-----------------------|
D--------------------------------------------------|

e--------------------------------------------------|
b--------------------------------------------------|
g-8------------5-----------8-----------------------|
D-8----(let ring)-5----(let ring)-8----(let ring)--|
A-6------------3-----------6-----------------------|
D--------------------------------------------------|

final chorus

e-----------------------------------------------|
b-----------------------------------------------|
g----------8-------5----------------------------|
D-5--------8--x16--5--x16-----------------------|                      x4
A-5--x16---6-------3----------------------------|
D-5---------------------------------------------|


and end on

e-----------------|
b-----------------|
g--8--------------|
D--8--(let ring)--|
A--6--------------|
D-----------------|


god bless


http://www.myspace.com/calltopreserve
Tap to rate this tab
 
# A B C D E F G H I J K L M N O P Q R S T U V W X Y Z