Song name
# A B C D E F G H I J K L M N O P Q R S T U V W X Y Z

Calla - Fear Of Fireflies tab

Highlighted       Show chord diagrams
-------------------------------------------------------------------------------
			     FEAR OF FIREFLIES - Calla
-------------------------------------------------------------------------------
Tabbed by: aslamp
Email: c@aslamp.com

Standard
Capo 1st fret

Main Riff:
e|-------------------------------------|
B|-------------------------------------|
G|-------------------------------------|
D|-----2-----0-2--------2-----0-2------|
A|-------0-2--------------0-2----------|
E|-0----0-------------0----------------|

Em

G       D      Em
Outside before you
Em

G          D       Em
Who's left to step to?
G         D    Em
Follow me back through
G          D       Em
Should be, could be you
Em

Em         D         Am
My fear of fire back cover me
Em         D         Am
Steal sure fire over me
C      G
Sea of fireflies
D            C
Hover in the dark
C         G
Following tracers
D          C
Scattering apart
C

C          Em
Following me
Em

G          D          Em
Black cat, firecrack, shoot
G         D        Em
Could be, should be you
Em

Em         D         Am
My fear of fire back cover me
Em         D         Am
Steal sure fire over me
C      G
Sea of fireflies
D            C
Hover in the dark
C         G
Following tracers
D          C
Scattering apart
C

C          Em
Following me
Em

Mid Riff:
e|-------------------|--------|------------|
B|-------------------|--------|------------|
G|-------------------|--9---7-|------------|
D|--9----9-10--7---9-|-10---9-|---9-----7--|
A|-10---10-12--9--10-|--------|-10-10--9-9-|
E|-------------------|--------|------------|
Tap to rate this tab
# A B C D E F G H I J K L M N O P Q R S T U V W X Y Z