Callahan - Anyways tab

E:------------------------------------------------|
B:------------------------------------------------|
G:-------------7--10----8--7----------------------|
D:--------8--10-------------10--8-10--12-10-------|
A:--8--10-----------------------------------------|
E:------------------------------------------------|

E:------------------------------------------------|   x2
B:----------------------8-------------------------|
G:-------------7--10-------10-8--7-8--10-8--------|
D:--------8--10-----------------------------------|
A:--8--10-----------------------------------------|
E:------------------------------------------------|
Tap to rate this tab
 
# A B C D E F G H I J K L M N O P Q R S T U V W X Y Z