Song name
# A B C D E F G H I J K L M N O P Q R S T U V W X Y Z

Callalily - Susundan tab

Help us improve GuitareTab! Take a short survey!
Artist:Callalily
Song Title: Susundan
Album: Fisheye

sa tingin ko naman ay accurate ito.
pakinggan niyo nalang ang kanta para malaman niyo kung paano i sabay, 
paano ang strumming, pati na din kung ilang beses ang pag strum.
salamat po at paki rate naman :)

Legend:
 / - slide up
 \ - slide down
 . - palm mute

Guitar1 - Tatsi Jamnague
Guitar2 - Alden Acosta

intro (part 1- clean):
C#m-C#m-B-B

bago ang pangalawang part ng intro (distorted):
(sabay ang dalawang gitara)
|----------------------|
|----------------------|
|--666--666--6-6-6-6---|
|--666--666--6-6-6-6---|
|--444--444--4-4-4-4---|
|----------------------|

intro (part 2 - distorted):
G1(rhythms)
|-----------------------|
|-----------------------|     *hindi ako sure kung ilan
|--5/666---------6/999--|      pero gets nio na cguro 
|--5/666--(x5)*--6/999--|      kung anong gagawin. hehe.
|--3/444---------4/777--|
|-----------------------|

G2(lead)
|--/1212-1111--------/1212-111111---------|
|-------------1212/----------------12/14--|
|-----------------------------------------|
|-----------------------------------------|
|-----------------------------------------|
|-----------------------------------------|

verse1 (distortion):
|--------------------------------|
|--------------------------------| 
|--666----------666--------------| Naghahanap ng kasagutan
|--666----------666--5/6----(x2)-| 
|--444--4/7~----444--------------|
|--------------------------------|
   ...          ...                



|---------------------------------------------|
|---------------------------------------------|
|--666----------666--------666--------666--4--|
|--666----------666--5/6---666--------666--4--| Sa tanong na di ko 
|--444--4/7~----444--------444--4/7---444--2--| maintindihan
|---------------------------------------------|
   ...          ...        ...        ...



|--------------------------------|
|--------------------------------| 
|--666----------666--------------| Meron pa bang patutunguhan?
|--666----------666--5/6----(x2)-| 
|--444--4/7~----444--------------|
|--------------------------------|
   ...          ...               



|---------------------------------------------|
|---------------------------------------------|
|--666----------666--------666--------666--4--|
|--666----------666--5/6---666--------666--4--| Ako'y nandito at ika'y 
|--444--4/7~----444--------444--4/7---444--2--| nawawala
|---------------------------------------------|
   ...          ...        ...        ...


|----------|
|----------|
|--4-------| Nahuhulog na ang luha
|--4-(x16)-|(hindi sure. pasensya na.)
|--2-------|
|----------|


chorus1 (distortion):(sundan ang beat ng song sa pag strum)
G1 (rhythms)
|------------------------------------------|
|------------------------------------------|
|--66666666--44444444------------44444444--|       
|--66666666--44444444--77777777--44444444--|-------|
|--44444444--22222222--77777777--22222222--|       |Susundan kahit sa'n man 
|----------------------55555555------------|       |magpunta
                                                   |'Di ka mawawala
G2 (lead)                                         /
|---------------------------------------------|  /
|---------------------------------------------| /
|--6666-/-9999--44444444------------44444444--|/
|--xxxx-/-xxxx--xxxxxxxx--77777777--xxxxxxxx--|
|--4444-/-7777--22222222--77777777--22222222--|
|-------------------------55555555------------|

SABAY ang dalawang gitara (iba ang tempo)
|------------------------------------------|
|------------------------------------------|
|--66666666--44444444------------44444444--|  Sa puso kong iyong iyo lamang
|--66666666--44444444--77777777--44444444--|  di kita malilimutan
|--44444444--22222222--77777777--22222222--|       
|----------------------55555555------------|


Interlude1: Ulitin lamang ang intro

verse2 (distortion): Ulitin ang verse1
Lumisan ka ng walang paalam
hindi na alam kung saan ka ba mahahanap
Pano ba natin mahahawakan
mga pangarap na ating iningatan
Nahuhulog na ang luha

chorus2 (distortion): Ulitin ang chorus
(parehas lang ang lyrics)

Interlude2: Ulitin nag verse riff

bridge (distortion):
ISA LANG sa dalawang gitara ang nagpplay
>>PALM MUTE lahat
|------------------------------|
|------------------------------| Susundan 
|------------------------------| kahit san 
|------------------------------| man mag punta
|--4 (x16)--2 (x16)--0 (x16)---|       
|------------------------------|

SABAY ang dalawang gitara
>>wala nang palm mute
|--------------|
|--------------|
|--44--44--44--| (sabay sa drums ang pag strum)
|--44--44--44--| 'Di ka mawawala
|--22--22--22--|
|--------------|

chorus3 (distortion):
SABAY ang dalawang gitara 
|------------------------------------------|
|------------------------------------------|
|--66666666--44444444------------44444444--|  Sa puso kong iyong iyo 
|--66666666--44444444--77777777--44444444--|  LAMAAANG!!!
|--44444444--22222222--77777777--22222222--|  Di kita malilimutan     
|----------------------55555555------------|

ending (distortion):
SABAY ang dalawang gitara
|------------|
|------------|
|--6-6--66\--| PAALAM
|--6-6--66\--| (sabay sa cymbals)
|--4-4--44\--|
|------------|

end.
rok on guys. support OPM, too. hehe.


Related for Susundan tab