Song name
# A B C D E F G H I J K L M N O P Q R S T U V W X Y Z

Callalily - Stars tab

Guitar 1 (Lead) 0:00-0:23
e|--------------------------------------------------------------------|
B|------15------------------------------------------------------------|
G|12--12---12-14-14-14-14h16-14-12-12---------------------------------|
D|--------------------------------------------------------------------| X6
A|--------------------------------------------------------------------|
E|--------------------------------------------------------------------|


(Verse)

  Acoustic Guitar 0:07-0:23
  E               C               G               D 

Chorus


  Acoustic Guitar 
  G               D               E               C


3RD CHORUS 2:35-3:21

  Guitar 1 (Clean) and Guitar 2 (Distortion)
e|--------------------------------------------------------------------|
B|--------------------------------------------------------------------|
G|----------------7-7-7-7-7-7-7-7-9-9-9-9-9-9-9-9-5-5-5-5-5-5-5-------|
D|5-5-5-5-5-5-5-5-7-7-7-7-7-7-7-7-9-9-9-9-9-9-9-9-5-5-5-5-5-5-5-------|
A|5-5-5-5-5-5-5-5-5-5-5-5-5-5-5-5-7-7-7-7-7-7-7-7-3-3-3-3-3-3-3-------|
E|3-3-3-3-3-3-3-3-----------------------------------------------------|

e|------------------------------------xxxx-----xxxx-------------------|
B|------------------------------------xxxx-----xxxx-------------------|
G|----------------7-7-7-7-7-7-7-7-5-5-xxxx-5-5-xxxx--5-5-5-5-5-5-5-5-5|
D|5-5-5-5-5-5-5-5-7-7-7-7-7-7-7-7-5-5-xxxx-5-5-xxxx--5-5-5-5-5-5-5-5-5| X2
A|5-5-5-5-5-5-5-5-5-5-5-5-5-5-5-5-3-3-xxxx-3-3-xxxx--3-3-3-3-3-3-3-3-3|
E|3-3-3-3-3-3-3-3---------------------xxxx-----xxxx-------------------|

e|--------------------------------------------------------------------|
B|--------------------------------------------------------------------|
G|----------------7-7-7-7-7-7-7-7-9-9-9-9-9-9-9-9-5-5-5-5-5-5-5-------|
D|5-5-5-5-5-5-5-5-7-7-7-7-7-7-7-7-9-9-9-9-9-9-9-9-5-5-5-5-5-5-5-------|
A|5-5-5-5-5-5-5-5-5-5-5-5-5-5-5-5-7-7-7-7-7-7-7-7-3-3-3-3-3-3-3-------|
E|3-3-3-3-3-3-3-3-----------------------------------------------------|

e|------------------------------------xxxx-----xxxx-------------------|
B|------------------------------------xxxx-----xxxx-------------------|
G|----------------7-7-7-7-7-7-7-7-5-5-xxxx-5-5-xxxx--5~---------------|
D|5-5-5-5-5-5-5-5-7-7-7-7-7-7-7-7-5-5-xxxx-5-5-xxxx--5~---------------| 
A|5-5-5-5-5-5-5-5-5-5-5-5-5-5-5-5-3-3-xxxx-3-3-xxxx--3~---------------|
E|3-3-3-3-3-3-3-3---------------------xxxx-----xxxx-------------------|
Tap to rate this tab
 
# A B C D E F G H I J K L M N O P Q R S T U V W X Y Z