Song name
# A B C D E F G H I J K L M N O P Q R S T U V W X Y Z

Callalily - Nananaginip tab

-------------------------------------------------------------------------------
			     Nananaginip - Callalily
-------------------------------------------------------------------------------
Tabbed by: Arnold Dwight M. Sediego

Email: Bivhoy08@yahoo.com

Note: Sa pag kakarinig ko tama ung Tab ko pero kayo na ang mag judge... 
Sana magustuhan nyo pasensya na lang sa Tab nung mga Verses di ko sure yan 
"FIRST TIME" ko kasi mag Tab pero para sakin accurate ang mga yan.  

           THANKS SA MENTOR KO SI "John Francis Cardel" 

Legends: \ - SLIDE UP\DOWN
         ~ - LET IT RING (SUSTAIN)

Tuning: Standard E A D G B e

INTRO:

e|-------10-7--------7---------10-7------|
B|-----8-------8--10---8-----8------8-10-|
G|-7-9-------------------7-9-------------|
D|---------------------------------------|
A|---------------------------------------|
E|---------------------------------------|

...Nagpasya...          Pighati....         umaasa lagi...
e|-----------------|          e|-----------|          e|-----------------|
B|------12---------|          B|------12---|          B|------12------12-|
G|-9-11----12-9-12-|          G|-9-11----9-|          G|-9-12----9-12----|
D|-----------------|          D|-----------|          D|-----------------|
A|-----------------|          A|-----------|          A|-----------------|
E|-----------------|          E|-----------|          E|-----------------|

AFTER FIRST CHORUS:
e|-------10-7----------10-7---------10-7-------|
B|-----8-------8-----8------8-----8------8-10--|
G|-7-9-----------7-9----------7-9--------------|
D|---------------------------------------------|
A|---------------------------------------------|
E|---------------------------------------------|

ADLIB: 
e|--------------------8\10-8-7-8-------------------------------8\10-|
B|----------\8~8\10-8------------8\10-8-10-8-10-10\12-13-12-10------|
G|------7\9~--------------------------------------------------------|
D|-\9-7-------------------------------------------------------------|
A|------------------------------------------------------------------|
E|------------------------------------------------------------------|

e|-8-10\13-12-12-10\12-10----------------------13\15-11----------------|
B|------------------------11\12-12-13-12-10-------------12-------------|
G|------------------------------------------12-------------12-14\16-14-|
D|---------------------------------------------------------------------|
A|---------------------------------------------------------------------|
E|---------------------------------------------------------------------|

e|-------------|
B|-13s15~~-----|
G|-------------|
D|-------------|
A|-------------|
E|-------------|


NOTE: WALANG VIOLENT REACTION PLEASE FIRST TIMER LANG PO AKO DITO THASNKS!
Tap to rate this tab
 
# A B C D E F G H I J K L M N O P Q R S T U V W X Y Z