Song name
# A B C D E F G H I J K L M N O P Q R S T U V W X Y Z

Callalily - Pasan tab

Pasan 
by Callalily
email:tobatsdrive@yahoo.com
tabbed by ferdz tobats
time: 7:16
date: feb 20, 2011

kung may tanong txt lang 09078968043
hi kay ms.fam i miss you!!! :)

intro: Em D G 2X up down lang ung strum sa intro mga repapipz 

|----------------------|
|----------------------|
|---9---7---5----------| 2x
|---x---x---x----------|
|---7---5---3----------|
|----------------------|after neto hugot ung bass sa e string  

bass:
E|-------slide-up-17---------------|

pasok...
|-----------|
|-----------|
|--4-5-7----| 2x
|--4-5-7----|
|--2-3-5----|
|-----------|


   Em  D  G 2X
|------10-------------------|
|--7-8----8-7---12--10------|
|-------------7---------12--|  2x
|---------------------------|
|---------------------------|
|---------------------------|

verse:
|-------------------------------|
|-------------------------------|
|---9---7---5---9---11--5-------| 
|---x---x---x---x---x---x-------|
|---7---5---3---7---9---3-------|
|-------------------------------|


pre-chorus: G D C 2x
            Bm C 3x D....


chorus: G D C-D-Em D/F# C

solo: instrumental before the brige

|-------------------------------|
|---12-10-----------------------|
|----------12-9-----------------|
|----------------12-------------|
|-------------------12--10------|
|-------------------------------|

|-------------------------------------------|
|---12-10-----------------------------------|
|----------12-9-----9h12~-9h12~-9h12~-------|
|----------------12-------------------------|
|-------------------------------------------|
|-------------------------------------------|

bridge: Em D C
        Em D C D

chorus:

at ngayon...(pause)

|------|------------------------------|
|------|------------------------------|
|--4-5-|-----7---55555--5-7-9---11-5--| 
|--4-5-|-----x---xxxxx--x-x-x---x--x--|
|--2-3-|-----5---33333--3-5-7---9--3--|
|------|------------------------------|
         ...Pasan kita



outro:
   Em  D  G 2X
|------10-------------------|
|--7-8----8-7---12--10------|
|-------------7---------12--|  2x
|---------------------------|
|---------------------------|
|---------------------------|

|-----------|
|-----------|
|--4-5-7----| 2x
|--4-5-7----|
|--2-3-5----|
|-----------|


ending: G

|---3--|
|---3--|
|---4--| 
|---7--|
|---7--|
|---3--|


Tap to rate this tab
 
# A B C D E F G H I J K L M N O P Q R S T U V W X Y Z