Callalily - Magbalik tab

Ehem ehem!
Adlib po ng magbalik!
Wag po sana kayo magduda diyan. Hinimay-himay ko po yan para unti-untiin nyo.

100% real -- 50% off

By: zErneV ^^
Practice Makes Perfect. But nobody's Perfect. So don't be nobody.


h - Hammer on
\ - Slide down
b - Bend
/ - Slide up

|---------------------------------------------------|
|-----------------------121212-101010-88\55---------|
|----------------9~-9h11----------------------------|
|---------9~-9h11-----------------------------------|
|-----9-11------------------------------------------|
|-9-12----------------------------------------------|

kasunod neto....


|---------------------------------------------------|
|-5/17~---17-1919-19/21-21-19\17-17-16--------------|
|---------------------------------------------------|
|---------------------------------------------------|
|---------------------------------------------------|
|---------------------------------------------------|

tun tenen tun tenen... eto po yon. (EASY PRAMIS!!)

|---------------------------------------------------|
|---17-16--17-16--17-16--17-16----------------------|
|-16-----16-----16-----16---------------------------|
|---------------------------------------------------|
|---------------------------------------------------|
|---------------------------------------------------|

continuation....

|------17-16-----17-16-----17-16-----17-16-16\bitaw-|
|-16h17-----16h17-----16h17-----16h17---------------|
|---------------------------------------------------|
|---------------------------------------------------|
|---------------------------------------------------|
|---------------------------------------------------|


|-------121212--------------------------------------|
|-171717-------11-9-11b---9-------------------------|
|-----------------------11--------------------------|
|---------------------------------------------------|
|---------------------------------------------------|
|---------------------------------------------------|

|---------------------------------------------------|
|-9h11-101010---------------------------------------|
|-------------999-----------------------------------|
|-----------------99~-77-7h9-7----------------------|
|------------------------------11-------------------|
|------------------------------9--------------------|



PLEASE RATE!! ENJOY PO!



Tap to rate this tab
 
# A B C D E F G H I J K L M N O P Q R S T U V W X Y Z