Guitaretab - guitar tabs
Song name
# A B C D E F G H I J K L M N O P Q R S T U V W X Y Z

Callalily - Pansamantala tab

-----------------------------------------|
-----------------------------------------|
---------------------2/4-2-0--2/4-7-4-2--|
--5-7-9--9--7-0-0/2-5--------------------|
-5---------------------------------------|
-----------------------------------------|

[ Tab from: http://www.guitaretab.com/c/callalily/335568.html ]
-----------------------------------------|
-----------------------------------------|
---------2/4-2-0-------------------------|
-0-0/2-5---------------------------------|
-----------------------------------------|
-----------------------------------------|

Its my first tab btw :) I'm just 13 years old :D

/ = slide
Related for Pansamantala tab
Pansamantala chords by Callalily