Song name
# A B C D E F G H I J K L M N O P Q R S T U V W X Y Z

Callalily - Stars Acoustic tab

Artist: Callalily
Title: Stars
Guitar Solo
Tabbed By:Vince Hernandez
2013



================================================
Rate 5 stars If you Still Listen to This Song!
================================================

e|---------------------------------------------|
B|-------------------8--8-8-------12r10--8-----|
G|-----------7---7/9---9-------------------9~~-|
D|-5-5---7/9---9-------------------------------|
A|-----7---------------------------------------|
E|---------------------------------------------|


e|-------------------------3h5p3---------------|
B|-------------3/5---3h5p3-------3h5p3---------|
G|-------5-4-2---------------------------------|
D|-5-4-2---------------------------------------|
A|---------------------------------------------|
E|---------------------------------------------|

================================================
My Fb:vince_cloud58648@yahoo.com
For Questions And Suggestions.
================================================
Tap to rate this tab
# A B C D E F G H I J K L M N O P Q R S T U V W X Y Z