Song name
# A B C D E F G H I J K L M N O P Q R S T U V W X Y Z

Callalily - Pasasalamat tab

PASASALAMAT - CALLALILY
TAB BY      - EMMANUEL LUMBRES

INTRO:

F-C-Am-G
Wala na akong ibang hihilingin
Salamat sa Diyos kayo ay kapiling
                                          
e|---15-----------15--------------------|
B|-------12--13--------17h18--17--15----|
G|--------------------------------------|
D|--------------------------------------|
A|--------------------------------------|
E|--------------------------------------|

                                       

e|--15----------15---------------------------|
B|-----12--13------17h18--17--15- 17--12-13*-|
G|-------------------------------------------|
D|-------------------------------------------|
A|-------------------------------------------|
E|-------------------------------------------|



[Verse1] 
 F                C
Puno ng saya ang gabi ngayon
 F                      C
Ang lahat ng ito'y pangarap ko
F              C                G
Na paulit-ulit na dinadalangin ko


 F                C
Sumabay kayo sa mga awit ko
 F                      C
Tungkol sa gabay at panaginip mo
F              C                G
Dahil sa inyo tuloy ang ikot ng mundo


[Chorus] F-C-Am-G

 F                         C
Wala na akong ibang hihilingin
 Am                           G
Salamat sa inyo kayo ay kapiling
F                C
Narito na ang bukas
Am              G
O, ang saya ng bukas...

[Instrumental] F-C-G-Am 

then e2 ung lead

e|--15----------15---------------------------|
B|-----12--13------17h18--17--15- 17--12-13*-|
G|-------------------------------------------|
D|-------------------------------------------|
A|-------------------------------------------|
E|-------------------------------------------|

end F


[Verse2]

 F                C
Sa mga nagdaan sa buhay ko
F                      C
May lungkot at saya ang dinanas niyo
 F              C
Ngayon alam ko na ang nasa puso ko

 F                         C
Sa gitna ng lahat ng pagsubok
F                     C
Naniwala kayo na kaya ko
F                    C                  G
At ngayon iingatan ko na ang nasa palad ko

[Chorus]
 F                         C
Wala na akong ibang hihilingin
 Am                           G
Salamat sa inyo kayo ay kapiling
F                C
Narito na ang bukas
Am              G
O, ang saya ng bukas...


[Chorus]
 F                         C
Wala na akong ibang hihilingin
 Am                           G
Salamat sa inyo kayo ay kapiling
F                C
Narito na ang bukas
Am              G
O, ang saya ng bukas...

F-C-Am-G


[Bridge] 
 F             C
Alam kong kakayanin ko
 F             C
Basta't kasama ko kayo
 F             C
Alam kong kakayanin ko
 F              C
Basta't kasama ko kayo
 F             C
Alam kong kakayanin ko
 F             C
Basta't kasama ko kayo
 F             C
Alam kong kakayanin ko
 F             G
Basta't kasama ko...

[Chorus] 

F                         C
Wala na akong ibang hihilingin
 Am                           G
Salamat sa diyos kayo ay kapiling
F                C (3x down strum)
Narito na ang bukas
Am              G
ang saya ng bukas...


F                         C
Wala na akong ibang hihilingin
 Am                           G
Salamat sa inyo kayo ay kapiling
F                C
atin na ang bukas
Am              G
ohh, ang saya ng bukas...


F-C-Am-G  


F-C-Am-G      F ending
Ohhh ohh ohh ohh...
Ohhh ohh ohh ohh...


F-C-Am-G 

e|---15-----------15--------------------| bali 2x to kasabay ng ohhhh ohhhh ohhhh ..
B|-------12--13--------17h18--17--15----|
G|--------------------------------------|
D|--------------------------------------|
A|--------------------------------------|
E|--------------------------------------|



e|---15-----------15--------------------|  e2 ung pantapos
B|-------12--13-------17h18--17*--15----|
G|--------------------------------------|
D|--------------------------------------|
A|--------------------------------------|
E|--------------------------------------|





Salamat natapos ko din .. wala kasing magawa eh kaya natripan gawan ng TAB to, 
tsaka idol ko rin ang callalily .. sana magustuhan nyu 
naman to paki message nalang ako sa facebook kung may mali, aayusin natin yan .. 
haha

hi pla sa mga taga PAMANTASAN NG CABUYAO .. sa mga crush ko lalong lalo na si 
CHARLENE VASQUEZ sana mapansin mo naman ako :) hehehe at si 
JANE KAYE din hehe..

pabati narin sa mga teachers ko .. 


eto pala fb account ko emmanuelyuki@yahoo.com 
kung d nyu mahanap search nyu nalang EMMANUEL LUMBRES ..

MARAMING SALAMAT .. MABUHAY ANG CALLALILY !!!! pasyensya na sa mga pabati ko ahahaha
at salamat sa U.G ..

ROCK EN ROLL MGA TOL !!! 

-EMMANZEVEN ..
Tap to rate this tab
# A B C D E F G H I J K L M N O P Q R S T U V W X Y Z