Song name
# A B C D E F G H I J K L M N O P Q R S T U V W X Y Z

Callalily - Magbalik tab

Guitar 2:
e|----------------------------------------------7/12~~--|
B|----------------------121212-101010-999-777-----------|
G|---------6h8/9~~-9/11---------------------------------|
D|----6h7/9---------------------------------------------|
A|-7h9--------------------------------------------------|
E|------------------------------------------------------|

e|-121212-141414-161616----12-11------12-11----12-11----12-11----12-11------|
B|-----------------------------------------12--------12------12--------12---|
G|--------------------------------------------------------------------------|
D|--------------------------------------------------------------------------|
A|--------------------------------------------------------------------------|
E|--------------------------------------------------------------------------|

Continuation........
17-16----17-16----17-16----17-16-------------121212-1111-10------------------|
------17--------17------17-------17------------------------------------------|
------------------------------------------------------------11-9-11b12-9-----|
-------------------------------------------------------------------------9---|
-----------------------------------------------------------------------------|
Continuation........
-----------------------------------------|
-------------101010999-------------------|
----9--9h11------------------------------|
-----------------------999-777-6h7-6s4---|
---------------------------------------7-|
-----------------------------------------|
Tap to rate this tab
# A B C D E F G H I J K L M N O P Q R S T U V W X Y Z