Song name
# A B C D E F G H I J K L M N O P Q R S T U V W X Y Z

Callalily - Pansamantala tab

e------------------------------------------|
B------0----0-3-0--------------------------|
G---0-2-----------2--------0-0---0-2/4-2-0-|
D-0------------------0-0/2-----------------|
A------------------------------------------|
E------------------------------------------|

e------------------------------------------|
B-----------0-3-0--------------------------|
G-0h2-2/4---------2--------0-0---0-2/4-2-0-|
D--------------------0-0/2-----------------|
A------------------------------------------|
E------------------------------------------|

tabbed by: Janiel Lopez
Tap to rate this tab
# A B C D E F G H I J K L M N O P Q R S T U V W X Y Z