Song name
# A B C D E F G H I J K L M N O P Q R S T U V W X Y Z

Callalily - Pansamantala tab

Hey guys ! This is my first tab ever in UG and I hope it helps a lot
Bale ito po yung intro ..
e-------------------------------------------------------------------------|
B-------------------------------------------------------------------------|
G--------7------------0-2h4-2-0-------2h4--7-----------0-2h4-2-0----------|
D--5-7-9--9--7--0-0h2------------0h2-0--------9-7-0--0h2------------------|
A-5-----------------------------------------------------------------------|
E-------------------------------------------------------------------------|

Ito nman po yung part na pag tapos. Ng chorus
e------------------------------------------------------|
B------------------------------------------------------|
G--------7------------0-2h4--2--0----------------------|
D--5-7-9--9-7--0--0h2----------------------------------|
A-5----------------------------------------------------|
E------------------------------------------------------|
Tap to rate this tab
# A B C D E F G H I J K L M N O P Q R S T U V W X Y Z