Song name
# A B C D E F G H I J K L M N O P Q R S T U V W X Y Z

Callalily - Pansamantala chords

Highlighted       Show chord diagrams
Chords
G:320033
Gsus:20033
Em7:022033
C9: 032033
G/B:    020033

tabbed by: Janiel Lopez


e--------------------------------------------------|
B------0-----0-3-0---------------------------------|
G---0-2-----------2--------------0-0-----0-2/4-2-0-|
D-0---------------------0-0/2----------------------|
A--------------------------------------------------|
E--------------------------------------------------|

e--------------------------------------------------|
B-----------0-3-0----------------------------------|
G-0h2-2/4---------2--------------0-0-----0-2/4-2-0-|
D-----------------------0-0/2----------------------|
A--------------------------------------------------|
E--------------------------------------------------|


Intro: G Gsus Em7 C9 2x

G             Gsus
Siya na ang mayaman

                Em7       C9
Siya na ang may oto, siya na

 G            Gsus    Em7  
Siya na ang meron ng lahat 

              C9
Ng bagay na wala ako

 G           Gsus  Em7     C9
'Di mo man sabihin, aking napapansin

 Am             G/B 
Kapag nalagay ka sa alanganin

 C9       D       Dsus4
Heto na naman tayo

Chorus: 

      G          Gsus
Pansamantalang unan

           Em7         C9
Sa tuwing ika'y nahihirapan
 
 G                Gsus
Pansamantalang panyo 

           Em7         C9
Sa tuwing ika'y nasasaktan

e--------------------------------------------------|
B------0-----0-3-0---------------------------------|
G---0-2-----------2--------------0-0-----0-2/4-2-0-|
D-0---------------------0-0/2----------------------|
A--------------------------------------------------|
E--------------------------------------------------|


Verse 2:

G     Gsus         Em7          C9
Bakit ba sa akin na lang palagi ang takbo

G              Gsus 
Sa tuwing kayo ay may away

Em7          C9
Ako ang lagi mong karamay

G          Gsus  
Di naman tayo, 

   C9 
hindi (strum once)

           D
Diba't hindi ? (strum once)


Chorus: 

      G          Gsus
Pansamantalang unan

           Em7         C9
Sa tuwing ika'y nahihirapan
 
 G                Gsus
Pansamantalang panyo 

           Em7         C9
Sa tuwing ika'y nasasaktan


Bridge:

   Em7           C9    
Kaibigan lang bang maituturing

    Em7                C9
Ang hirap naman yatang mangapa sa dilim

Em7              C9              D    Dsus4 
Sino nga ba talaga sa amin ang iyong


Chorus: 

      G          Gsus
Pansamantalang unan

           Em7         C9
Sa tuwing ika'y nahihirapan
 
 G                Gsus
Pansamantalang panyo 

           Em7         C9
Sa tuwing ika'y nasasaktan


Outro:

     G     Gsus
Pansamantala

     Em7   C9
Pansamantala

     G     Gsus
Pansamantala

           Em7  C9 
Tanggap ko na

End on G
Tap to rate this tab
# A B C D E F G H I J K L M N O P Q R S T U V W X Y Z