Song name
# A B C D E F G H I J K L M N O P Q R S T U V W X Y Z

Callalily - Magbalik tab

This is my first perfect tablature of 
    magbalik by callalily;;;;ceyan jace

intro:
guitar 1:

e[------------------------------------------]
B[------------------------------------------]
G[------------------------------------------]
D[------------------------------------------]
A[----2-4-6---0-2-4------2-4-6---0-2-4------]
E[--0-------0----------0-------0------------]

intro2(ung lead)

e[----7------------------7------------------7----------------------------]
B[--5---7--5--7s9-5----5---7--5--7s9-5----5---7--5--7-9-10-9-5-10-9-7----]
G[-----------------------------------------------------------------------]
D[-----------------------------------------------------------------------]
A[-----------------------------------------------------------------------]
E[-----------------------------------------------------------------------]

e[----7-----------------7-------------------7----------------------------]
B[--5---7--5--7s9-5---5---7--5--7s9-5-----5---7--5--7-9-10-9-12----------]
G[-----------------------------------------------------------------------]
D[-----------------------------------------------------------------------]
A[-----------------------------------------------------------------------]
E[-----------------------------------------------------------------------]


eto ung adlib(pagpasensyahan nyo n po)

e[-----------------------------------------------------------1s12-12-12-12--]
B[-------------------7-9-12-12--12-10-10--10-9-9--9-7-7-7-------------------]
G[------------6-8-9---------------------------------------------------------]
D[--9-7-6-7-9---------------------------------------------------------------]
A[--------------------------------------------------------------------------]
E[--------------------------------------------------------------------------]

e[--12s14-14--14s16-16--16s14s12-11--12-11s7-12-11s7-12-11s7-12-11s7--------]
B[--------------------------------------------------------------------------]
G[--------------------------------------------------------------------------]
D[--------------------------------------------------------------------------]
A[--------------------------------------------------------------------------]
E[--------------------------------------------------------------------------]

e[--12h17s16-12h17s16-12h17s16-12h17s16-------------------------------------]
B[---------------------------------------17-17-17-16-16-16-12s7s9-7s4s5-----]
G[--------------------------------------------------------------------------]
D[--------------------------------------------------------------------------]
A[--------------------------------------------------------------------------]
E[--------------------------------------------------------------------------]

e[--------------------------------------------------------------------------]
B[--------------------------------------------------------------------------]
G[--7s9s14-14-14-13-13-13-9-9-9-7-7-7-6h7-6---------------------------------]
D[--------------------------------------------------------------------------]
A[--------------------------------------------------------------------------]
E[--------------------------------------------------------------------------]
Tap to rate this tab
# A B C D E F G H I J K L M N O P Q R S T U V W X Y Z