Guitaretab - guitar tabs
Song name
# A B C D E F G H I J K L M N O P Q R S T U V W X Y Z

Callalily - Final Song tab

Title:  Final Song
Artist: Callalily
Album:  Destination XYZ
Tabbed by:†GENOME™†(Chris)
E-mail/Yahoo! messenger:genome_musik@yahoo.com

(Para ito sa lhat ng mga classmates ko from davao central high school...!)

GENOME BAND
singer: unknown..
Rhythm guitar: Chris(Suwang)
Lead guitar: Charlie(Pango)
Bass guitar: Micheal(Loh'Loh')
Drums:Gesster(Punkol)

Standard Tuning lang poh ito..


Guitar Legend:
~ - Let ring

Intro Part 1:
Guitar 1(rhythm)
e|-----------------------------------------|
B|-----------------------------------------|
G|---77------------------------------------| (repeat 2 times)
D|---77--77---99---55----------------------|
A|---55--77---99---55----------------------|
E|-------55---77---33----------------------|


Guitar 2 (lead)
e|----------------------------------------|
B|----------------------------------------|
G|-----7777----7777----7777----7777-------|
D|-----7777----7777----7777----7777-------| (repeat 2 times)
A|---55------55-------55-------55---------|
E|----------------------------------------|

Intro Part 2:
Guitar 1 (rhythm)
e|-----------------------------------------|
B|-----------------------------------------|
G|---7777----------------------------------| (repeat 2 times)
D|---7777---7777---9999---5555-------------|
A|---5555---7777---9999---5555-------------|
E|----------5555---7777---3333-------------|

Guitar 2 (lead)
e|-------------------------------|
B|--777--------------------------|
G|------7777-9999-6666-----------|  (repeat 4 times)
D|-------------------------------|
A|-------------------------------|
E|-------------------------------|
Guitar 2 (lead)
e|-----|
B|-----|
G|-777-|
D|-----|
A|-----|
E|-----|

Verse:

Guitar 1 (rhythm)
e|---------------------------|
B|---------------------------|
G|---7~----------5~----------|  (repeat 2 times)
D|---7~----7~----5~----5~----|
A|---5~----7~----3~----5~----|
E|---------5~----------3~----|


Guitar 2 (lead)
e|-------------------------|
B|------------7----7-------|
G|-----------7--7-7--------|  (repeat many times)
D|----------7----7---------|
A|-----5555----------------|
E|-------------------------|


Pre-Chorus:

Both guitars: (lead & rhythm)
e|------------------------|
B|------------------------|
G|------------------------|
D|--4444444--5555555------| (repeat 2 times)
A|--4444444--5555555------|
E|--2222222--3333333------|

Chorus:

Guitar 1 (rhythm)
e|-----------------------------------------|
B|-----------------------------------------|
G|---7777----------------------------------| (repeat 2 times)
D|---7777---7777---9999---5555-------------|
A|---5555---7777---9999---5555-------------|
E|----------5555---7777---3333-------------|


Guitar 2 (lead)
e|-------------------------------|
B|--777--------------------------|
G|------7777-9999-6666-----------| (repeat 4 times)
D|-------------------------------|
A|-------------------------------|
E|-------------------------------|

Pre-Verse:
Both Guitars: (lead & rhythm)
e|----------------------|
B|----------------------|
G|----------------------|
D|----9~~--7~~---5~~----| (repeat 2 times)
A|----9~~--7~~---5~~----|
E|----7~~--5~~---3~~----|


Intro Part 2:
Guitar 1 (rhythm)
e|-----------------------------------------|
B|-----------------------------------------|
G|---7777----------------------------------| (repeat 2 times)
D|---7777---7777---9999---5555-------------|
A|---5555---7777---9999---5555-------------|
E|----------5555---7777---3333-------------|

Guitar 2 (lead)
e|-------------------------------|
B|--777--------------------------|
G|------7777-9999-6666-----------|  (repeat 4 times)
D|-------------------------------|
A|-------------------------------|
E|-------------------------------|
Guitar 2 (lead)
e|-----|
B|-----|
G|-777-|
D|-----|
A|-----|
E|-----|

Verse:

Guitar 1 (rhythm)
e|---------------------------|
B|---------------------------|
G|---7~----------5~----------|  (repeat 2 times)
D|---7~----7~----5~----5~----|
A|---5~----7~----3~----5~----|
E|---------5~----------3~----|


Guitar 2 (lead)
e|-------------------------|
B|------------7----7-------|
G|-----------7--7-7--------|  (repeat many times)
D|----------7----7---------|
A|-----5555----------------|
E|-------------------------|


Pre-Chorus:

Both guitars: (lead & rhythm)
e|------------------------|
B|------------------------|
G|------------------------|
D|--4444444--5555555------| (repeat 2 times)
A|--4444444--5555555------|
E|--2222222--3333333------|

Chorus:

Guitar 1 (rhythm)
e|-----------------------------------------|
B|-----------------------------------------|
G|---7777----------------------------------| (repeat 2 times)
D|---7777---7777---9999---5555-------------|
A|---5555---7777---9999---5555-------------|
E|----------5555---7777---3333-------------|


Guitar 2 (lead)
e|-------------------------------|
B|--777--------------------------|
G|------7777-9999-6666-----------| (repeat 4 times)
D|-------------------------------|
A|-------------------------------|
E|-------------------------------|

Pre-Verse:
Both Guitars: (lead & rhythm)
e|----------------------|
B|----------------------|
G|----------------------|
D|----9~~--7~~---5~~----| (repeat 2 times)
A|----9~~--7~~---5~~----|
E|----7~~--5~~---3~~----|

Intro Part 2:
Guitar 1 (rhythm)
e|-----------------------------------------|
B|-----------------------------------------|
G|---7777----------------------------------| (repeat 2 times)
D|---7777---7777---9999---5555-------------|
A|---5555---7777---9999---5555-------------|
E|----------5555---7777---3333-------------|

Guitar 2 (lead)
e|-------------------------------|
B|--777--------------------------|
G|------7777-9999-6666-----------|  (repeat 4 times)
D|-------------------------------|
A|-------------------------------|
E|-------------------------------|
Guitar 2 (lead)
e|-----|
B|-----|
G|-777-|
D|-----|
A|-----|
E|-----|

Pre-Verse:
Both Guitars: (lead & rhythm)
e|----------------------|
B|----------------------|
G|----------------------|
D|----9~~--7~~---5~~----| (repeat 2 times)
A|----9~~--7~~---5~~----|
E|----7~~--5~~---3~~----|


Title:  Final Song
Artist: Callalily
Album:  Destination XYZ
Tabbed by:†GENOME™†(band)
E-mail/Yahoo! messenger:genome_musik@yahoo.com

Standard Tuning lang poh ito..
[ Tab from: http://www.guitaretab.com/c/callalily/78240.html ]
Intro Part 1:
Guitar 1(rhythm)
e|-----------------------------------------|
B|-----------------------------------------|
G|---77------------------------------------| (repeat 2 times)
D|---77--77---99---55----------------------|
A|---55--77---99---55----------------------|
E|-------55---77---33----------------------|


Guitar 2 (lead)
e|----------------------------------------|
B|----------------------------------------|
G|-----7777----7777----7777----7777-------|
D|-----7777----7777----7777----7777-------| (repeat 2 times)
A|---55------55-------55-------55---------|
E|----------------------------------------|

Intro Part 2:
Guitar 1 (rhythm)
e|-----------------------------------------|
B|-----------------------------------------|
G|---7777----------------------------------| (repeat 2 times)
D|---7777---7777---9999---5555-------------|
A|---5555---7777---9999---5555-------------|
E|----------5555---7777---3333-------------|

Guitar 2 (lead)
e|-------------------------------|
B|--777--------------------------|
G|------7777-9999-6666-----------|  (repeat 4 times)
D|-------------------------------|
A|-------------------------------|
E|-------------------------------|
Guitar 2 (lead)
e|-----|
B|-----|
G|-777-|
D|-----|
A|-----|
E|-----|

Verse:

Guitar 1 (rhythm)
e|---------------------------|
B|---------------------------|
G|---7~----------5~----------|  (repeat 2 times)
D|---7~----7~----5~----5~----|
A|---5~----7~----3~----5~----|
E|---------5~----------3~----|


Guitar 2 (lead)
e|-------------------------|
B|------------7----7-------|
G|-----------7--7-7--------|  (repeat many times)
D|----------7----7---------|
A|-----5555----------------|
E|-------------------------|


Pre-Chorus:

Both guitars: (lead & rhythm)
e|------------------------|
B|------------------------|
G|------------------------|
D|--4444444--5555555------| (repeat 2 times)
A|--4444444--5555555------|
E|--2222222--3333333------|

Chorus:

Guitar 1 (rhythm)
e|-----------------------------------------|
B|-----------------------------------------|
G|---7777----------------------------------| (repeat 2 times)
D|---7777---7777---9999---5555-------------|
A|---5555---7777---9999---5555-------------|
E|----------5555---7777---3333-------------|


Guitar 2 (lead)
e|-------------------------------|
B|--777--------------------------|
G|------7777-9999-6666-----------| (repeat 4 times)
D|-------------------------------|
A|-------------------------------|
E|-------------------------------|

Pre-Verse:
Both Guitars: (lead & rhythm)
e|----------------------|
B|----------------------|
G|----------------------|
D|----9~~--7~~---5~~----| (repeat 2 times)
A|----9~~--7~~---5~~----|
E|----7~~--5~~---3~~----|


Intro Part 2:
Guitar 1 (rhythm)
e|-----------------------------------------|
B|-----------------------------------------|
G|---7777----------------------------------| (repeat 2 times)
D|---7777---7777---9999---5555-------------|
A|---5555---7777---9999---5555-------------|
E|----------5555---7777---3333-------------|

Guitar 2 (lead)
e|-------------------------------|
B|--777--------------------------|
G|------7777-9999-6666-----------|  (repeat 4 times)
D|-------------------------------|
A|-------------------------------|
E|-------------------------------|
Guitar 2 (lead)
e|-----|
B|-----|
G|-777-|
D|-----|
A|-----|
E|-----|

Verse:

Guitar 1 (rhythm)
e|---------------------------|
B|---------------------------|
G|---7~----------5~----------|  (repeat 2 times)
D|---7~----7~----5~----5~----|
A|---5~----7~----3~----5~----|
E|---------5~----------3~----|


Guitar 2 (lead)
e|-------------------------|
B|------------7----7-------|
G|-----------7--7-7--------|  (repeat many times)
D|----------7----7---------|
A|-----5555----------------|
E|-------------------------|


Pre-Chorus:

Both guitars: (lead & rhythm)
e|------------------------|
B|------------------------|
G|------------------------|
D|--4444444--5555555------| (repeat 2 times)
A|--4444444--5555555------|
E|--2222222--3333333------|

Chorus:

Guitar 1 (rhythm)
e|-----------------------------------------|
B|-----------------------------------------|
G|---7777----------------------------------| (repeat 2 times)
D|---7777---7777---9999---5555-------------|
A|---5555---7777---9999---5555-------------|
E|----------5555---7777---3333-------------|


Guitar 2 (lead)
e|-------------------------------|
B|--777--------------------------|
G|------7777-9999-6666-----------| (repeat 4 times)
D|-------------------------------|
A|-------------------------------|
E|-------------------------------|

Pre-Verse:
Both Guitars: (lead & rhythm)
e|----------------------|
B|----------------------|
G|----------------------|
D|----9~~--7~~---5~~----| (repeat 2 times)
A|----9~~--7~~---5~~----|
E|----7~~--5~~---3~~----|

finish with: Both Guitars (lead & rhythm)
e|-------|
B|-------|
G|-------|
D|---5~--|
A|---5~--|
E|---3~--|

Lyrics:
composed by: Alden Acosta

Verse:
Tired of looking at your photographs...
Smiling at your latest craze...
You can change the things you say and do...
But nothing can change the fact...
That you are sadly deranged...
And i want nothing to do with you...


Pre-Chorus:
No more hot tears and pride...
No more bloodshed this time...


Chorus:
I'm moving on to a better place...
Nightmares don't arrive when i see your face...
Cannot hold on to a bitter past...
Candles like us were never meant to last...

Pre-Verse:
Maybe you were right and i was wrong...
But nonetheless this is my final song...
About you...

Verse:
Tired of thinking about memories...
Laughing at your plastic head...
Even after all that we've been through...
Nothing can change the fact...
That i walked the path...
And i was happy to see it through...

Pre-Chorus:
No more hot tears and pride...
No more bloodshed this time...

Chorus:
I'm moving on to a better place...
Nightmares don't arrive when i see your face...
Cannot hold on to a bitter past...
Candles like us were never meant to last...

Pre-Verse:
Maybe you were right and i was wrong...
But nonetheless this is my final song...
Lets go!!

Pre-Verse:
Maybe you were right and i was wrong
But nonetheless this is my final song
Maybe you were right and i was wrong
But nonetheless this is my final song

Chorus:
I'm moving on to a better place...
Nightmares don't arrive when i see your face...
Cannot hold on to a bitter past...
Candles like us were never meant to last...

Pre-Verse:
Maybe you were right and i was wrong...
But nonetheless this is my final song......

                                  [END]
Related for Final Song tab
Advertisement will be closed in 10 seconds