Guitaretab - guitar tabs
Song name
# A B C D E F G H I J K L M N O P Q R S T U V W X Y Z

Callalily - Pasan tab

Intro:
e|-------------------------|
B|-------15-------12-10-8--|
G|-11-12---12-11-----------|
D|--------------12---------| x2
A|-------------------------|
E|-------------------------|

or

e|-------------------------|
B|-------15-------12-10----|
G|-11-12---12-11--------12-| x2
D|--------------12---------|
A|-------------------------|
E|-------------------------|

or

e|----------------------------|
B|-------15-------------------|
G|-11-12---12-11-----16-14-12-| x2
D|--------------12------------|
A|----------------------------|
E|----------------------------|



Solo:
[ Tab from: http://www.guitaretab.com/c/callalily/78241.html ]
e|----------------------------------------------------------------|
B|---12121212-10101010-8888--------------------101010-------------|
G|---------------------------9999-7777----------------------------|
D|-------------------------------------5h7-5~---------------------|
A|----------------------------------------------------------------|
E|----------------------------------------------------------------|

e|------------------------------------------------------------|
B|---12121212-10101010-8888------------------8-------8-------8|
G|---------------------------9999-7777--7s9-----7s9-----7s9---|
D|------------------------------------------------------------|
A|------------------------------------------------------------|
E|------------------------------------------------------------|
Related for Pasan tab
Pasan chords by Callalily