Guitaretab - guitar tabs
Song name
# A B C D E F G H I J K L M N O P Q R S T U V W X Y Z

Callalily - Destination Xyz tab

uuumm.. hi s mga callalily fans jan... hi rn s mga gmwa ng mga tabz n nand2 lalo n ky elvin_guitar
n halos lhat ay xa n ang ngtab... sori kng d muna ako ngpaalam kc bka d maaprove...

thanx s mga gmwa ng tabz ng:

stars             - chik
pasan             - elvin_guitar
take my hand      - No_Falter08
magbalik          - elvin_guitar
yakap             - elvin_guitar
kung kaya ko lang - elvin_guitar
takipsilim        - elvin_guitar
sanctuary         - elvin_guitar
muli              - jordankeno23
dreams            - No_Falter08
insane            - elvin_guitar
final song        - paul21
stars solo        - kiel_rs
take my hand solo - kyle_071106

nglagay dn ako ng sriling kng verxon dun s mga partz ng tab n s tngin k ms tma ung akn, bhala
n kau kng anng gus2 nyong gmtin... kso ung iba d2 la p k verxon kc d k p xado nppkinggan...
d k nrn cnama ung mga lyrics n ksma s tab kc pngphaba lng un..


I. STARS

Intro:

Guitar 1 ( play 6 times)
e---------------------------------------------|
B------------15-------------------------------|
G-----12-12-----12--14-14--12-14/16-14-12-----|
D---------------------------------------------|
A---------------------------------------------|
E---------------------------------------------|


[ verxon k ng intro:
e|-----10----------------------|
B|-8-8----8-10-10--10-10-12-10-|
G|-----------------------------|
D|-----------------------------|
A|-----------------------------|
E|-----------------------------| ]

[ verxon k ng rhythm s hlos lhat ng part ng songs:
e|-3-3-3-3-3-3-2-2-2-2-|
B|-3-3-3-3-3-3-3-3-3-3-|
G|-0-0-0-0-0-0-2-2-2-2-|
D|-2-2-2-2-0-0-0-0-0-0-|
A|-2-2-3-3-2-2---------|
E|---------3-3---------| ]


Guitar 2 (after playing the intro twice)
e----0-----0-----0-----0-----|
B----0-----0-----0-----0-----|
G----0-----7-----9-----5-----|
D----5-----7-----9-----5-----|
A----5-----5-----7-----3-----|
E----3-----------------------|

Then hataw nyo ung power chords nalang
Sa pang5th na play ng intro


Verse & Refrain

Guitar 1
e----------------------------|
B----------------------------|
G----------------7-----5-----|
D----2-----5-----7-----5-----|
A----2-----5-----5-----3-----|
E----------------------------|


Guitar 2
Verse Riff
e-------------------------|
B--------------16---------|
G--------12h14------------|
D-------------------------|
A-------------------------|
E-------------------------|

Refrain Riff

e---------------------------------|
B--------------------1616-1616----|
G---12121212h1414p12--------------|
D---------------------------------|
A---------------------------------|
E---------------------------------|

Chorus

Guitar 1
e----3-----3-----3-----3-----|
B----3-----3-----3-----3-----|
G----0-----2-----0-----0-----|
D----0-----0-----2-----2-----|
A----2-----0-----2-----3-----|
E----3-----3-----------------|

e----3-----3-----3----|
B----3-----3-----3----|
G----0-----2-----0----|
D----0-----0-----2----|
A----2-----0-----3----|
E----3-----3----------|

Guitar 2

e----------------------------|
B----------------------------|
G----------7-----9-----5-----|
D----5-----7-----9-----5-----|
A----5-----5-----7-----3-----|
E----3-----------------------|

e----------------------|
B----------------------|
G----------7------5----|
D----5-----7------5----|
A----5-----5------3----|
E----3-----------------|

(After the first chorus play the intro twice)

Adlib (After the 2nd chorus)

e-------------------------------------------|
B-------------------------------------------|
G----------------------------12h14-12-------|
D--------8h9-8--/12--14-12-14--------12-----|
A--9h11-9-----------------------------------|
E-------------------------------------------|

e-----------------------------------------------------|
B-----------------------------------------------------|
G----------------------------------12h14p12--7h9p7----|
D----------10-9----10/1212h14p12---------------------|
A--10-9---------10------------------------------------|
E-------10--------------------------------------------|


[ verxon n kiel_rs ng solo n s tngin k ms k2nog:
e|---------------------------------------------------|
B|------------------------10b11r10-8-----------------|
G|---------7--7/9-12-9-12-------------9--------------|
D|-----7/9--9----------------------------------------|
A|--10-----------------------------------------------|
E|---------------------------------------------------|


e|---------------------------------------------------|
B|-----------------------------8/10\8----------------|
G|--------------------7/9--7h9--------7/9\7----------|
D|-----------8/10-9-7--------------------------------|
A|--9/10-9-7-----------------------------------------|
E|---------------------------------------------------| ]


Refrain( bagsak bagsak lng )


e----------------------------|
B----------------------------|
G----9-----2-----7-----5-----|
D----9-----5-----7-----5-----|
A----7-----5-----5-----3-----|
E----------------------------|

Pause pagdating sa D kc drums
e---------------------P----|
B---------------------A----|
G----9-----------7----U----|
D----9-----5-----7----s----|
A----7-----5-----5----E----|
E--------------------------|


Tapos ng drums thrice hatawin

e----------|
B----------|
G----5-----|
D----5-----|
A----3-----|
E----------|

Repeat Chorus thrice because my 2nd chorus tpos ulitin uli ung 1st chorus. Ah basta 
nyo nalang ung kanta para makuha.

Outro
( play thrice)
e---------------------------------------------|
B------------15-------------------------------|
G-----12-12-----12--14-14--12-14/16-14-12-----|
D---------------------------------------------|
A---------------------------------------------|
E---------------------------------------------|

Eto ung pang apat

e------------------------------------------------|
B------------15----------------------------------|
G-----12-12-----12--14-14--12-14/16-14-12--12v---|
D------------------------------------------------|
A------------------------------------------------|
E------------------------------------------------|


II. PASAN

Intro part 1:
Guitar 1:
e|-----------------|-----------------|
B|-----------------|-----------------|
G|--9~---7~---5~~--|--9~---7~---5~~--|
D|--9~---7~---5~~--|--9~---7~---5~~--|
A|--7~---5~---3~~--|--7~---5~---3~~--|
E|-----------------|-----------------|
Guitar 2:
(continued)
e|------------------------------------|
B|------------------------------------|
G|-4444/55/77--4444/55/77---12121212--|
D|-xxxx/xx/xx--xxxx/xx/xx---xxxxxxxx--|
A|-2222/33/55--2222/33/55---10101010--|
E|------------------------------------|

Intro part 2:
Guitar 1:
e|----------------------------------------|
B|----------------------------------------|
G|--99999999--77777777--5555555555555555--|
D|--99999999--77777777--5555555555555555--| 2x
A|--77777777--55555555--3333333333333333--|
E|----------------------------------------|
Guitar 2:(tremolo picking)
e|-------10---------------------|
B|---7-8----8-7---/12-10-8~-----|
G|--------------7---------------| 2x
D|------------------------------|
A|------------------------------|
E|------------------------------|

Verse:
Both Guitars:
e|-----------------|-----------------|
B|-----------------|-----------------|
G|--9~---7~---5~~--|--9~---7~---5~~--|
D|--9~---7~---5~~--|--9~---7~---5~~--|
A|--7~---5~---3~~--|--7~---5~---3~~--|
E|-----------------|-----------------|
(continued)
e|----------------------------------------|
G|------------77777777--5555555555555555--|
D|--55555555--77777777--5555555555555555--| 2x
A|--55555555--55555555--3333333333333333--|
E|--33333333------------------------------|
    ........  ........  ................

Refrain:
e|-------------|-------------|
B|-------------|-------------|
G|--4444-5555--|--4444-5555--|
D|--4444-5555--|--4444-5555--|
A|--2222-3333--|--2222-3333--|
E|-------------|-------------|
(continued)
e|-----------------|-----------------|
B|-----------------|-----------------|
G|--4444-55555555--|--7777777777777--|
D|--4444-55555555--|--7777777777777--|
A|--2222-33333333--|--5555555555555--|
E|-----------------|-----------------|

Chorus:
Guitar 1:
e|----------------------------------------|
B|----------------------------------------|
G|------------77777777--5555555555555555--|
D|--55555555--77777777--5555555555555555--|
A|--55555555--55555555--3333333333333333--|
E|--33333333------------------------------|
(continued)
e|----------------------------------------|
B|----------------------------------------|
G|--99999999--77777777--5555555555555555--|
D|--99999999--77777777--5555555555555555--|
A|--77777777--55555555--3333333333333333--|
E|----------------------------------------|
Guitar 2:
e|------------------------------------|
B|------------------------------------|
G|-4444/55/77--4444/55/77---12121212--|
D|-xxxx/xx/xx--xxxx/xx/xx---xxxxxxxx--| 2x
A|-2222/33/55--2222/33/55---10101010--|
E|------------------------------------|

Interlude:
Guitar 1:
e|----------------------------------------|
B|----------------------------------------|
G|--99999999--77777777--5555555555555555--|
D|--99999999--77777777--5555555555555555--| 2x
A|--77777777--55555555--3333333333333333--|
E|----------------------------------------|
Guitar 2:(tremolo picking)
e|-------10---------------------|
B|---7-8----8-7---/12-10-8~-----|
G|--------------7---------------| 2x
D|------------------------------|
A|------------------------------|
E|------------------------------|

Verse:
Both Guitars:
e|-----------------|-----------------|
B|-----------------|-----------------|
G|--9~---7~---5~~--|--9~---7~---5~~--|
D|--9~---7~---5~~--|--9~---7~---5~~--|
A|--7~---5~---3~~--|--7~---5~---3~~--|
E|-----------------|-----------------|
(continued)
e|----------------------------------------|
G|------------77777777--5555555555555555--|
D|--55555555--77777777--5555555555555555--| 2x
A|--55555555--55555555--3333333333333333--|
E|--33333333------------------------------|
    ........  ........  ................

Refrain:
e|-------------|-------------|
B|-------------|-------------|
G|--4444-5555--|--4444-5555--|
D|--4444-5555--|--4444-5555--|
A|--2222-3333--|--2222-3333--|
E|-------------|-------------|
(continued)
e|-----------------|-----------------|
B|-----------------|-----------------|
G|--4444-55555555--|--7777777777777--|
D|--4444-55555555--|--7777777777777--|
A|--2222-33333333--|--5555555555555--|
E|-----------------|-----------------|

Chorus:
Guitar 1:
e|----------------------------------------|
B|----------------------------------------|
G|------------77777777--5555555555555555--|
D|--55555555--77777777--5555555555555555--|
A|--55555555--55555555--3333333333333333--|
E|--33333333------------------------------|
(continued)
e|----------------------------------------|
B|----------------------------------------|
G|--99999999--77777777--5555555555555555--|
D|--99999999--77777777--5555555555555555--|
A|--77777777--55555555--3333333333333333--|
E|----------------------------------------|
Guitar 2:
e|------------------------------------|
B|------------------------------------|
G|-4444/55/77--4444/55/77---12121212--|
D|-xxxx/xx/xx--xxxx/xx/xx---xxxxxxxx--| 2x
A|-2222/33/55--2222/33/55---10101010--|
E|------------------------------------|

Adlib:
Guitar 1:
e|----------------------------------------|
B|----------------------------------------|
G|--99999999--77777777--5555555555555555--|
D|--99999999--77777777--5555555555555555--| 2x
A|--77777777--55555555--3333333333333333--|
E|----------------------------------------|
Guitar 2:
e|----------------------------------------------------------------|
B|---12121212-10101010-8888--------------------101010-121212-888--|
G|---------------------------9999-7777----------------------------|
D|-------------------------------------5h7-5~---------------------|
A|----------------------------------------------------------------|
E|----------------------------------------------------------------|
(continued)
e|----------------------------------------------------|
B|---12121212-10101010-8888---------------------------|
G|---------------------------9999-7777---8--8--8--8~--|
D|--------------------------------------9--7--7--7----|
A|----------------------------------------------------|
E|----------------------------------------------------|

Bridge:
e|------------------------|--------------------------------------|
B|------------------------|--------------------------------------|
G|--------4444--55555555--|--------4444--55555555--777777777777--|
D|--7777--4444--55555555--|--7777--4444--55555555--777777777777--|
A|--7777--2222--33333333--|--7777--2222--33333333--555555555555--|
E|--5555------------------|--5555--------------------------------|

Chorus:
Guitar 1:
e|-------------------------------------------|
B|----P--------------------------------------|
G|----A----------77777777--5555555555555555--|
D|--5-U-guitar2--77777777--5555555555555555--|
A|--5-S-enters---55555555--3333333333333333--|
E|--3-E--------------------------------------|
(continued)
e|----------------------------------------|
B|----------------------------------------|
G|--99999999--77777777--5555555555555555--|
D|--99999999--77777777--5555555555555555--|
A|--77777777--55555555--3333333333333333--|
E|----------------------------------------|
(continued)
e|----------------------------------------|
B|----------------------------------------|
G|------------77777777--5555555555555555--|
D|--55555555--77777777--5555555555555555--|
A|--55555555--55555555--3333333333333333--|
E|--33333333------------------------------|
(continued)
e|----------------------------------------|
B|----------------------------------------|
G|--99999999--77777777--5555555555555555--|
D|--99999999--77777777--5555555555555555--|
A|--77777777--55555555--3333333333333333--|
E|----------------------------------------|
Guitar 2:
e|------------------------------------|
B|------------------------------------|
G|-4444/55/77--4444/55/77---12121212--|
D|-xxxx/xx/xx--xxxx/xx/xx---xxxxxxxx--| 4x
A|-2222/33/55--2222/33/55---10101010--|
E|------------------------------------|

Outro:
Guitar 1:
e|----------------------------------------|
B|----------------------------------------|
G|--99999999--77777777--5555555555555555--|
D|--99999999--77777777--5555555555555555--| 2x
A|--77777777--55555555--3333333333333333--|
E|----------------------------------------|
Guitar 2:(tremolo picking)
e|-------10---------------------|
B|---7-8----8-7---/12-10-8~-----|
G|--------------7---------------| 2x
D|------------------------------|
A|------------------------------|
E|------------------------------|

Then...
e|------------------------------------|
B|------------------------------------|
G|-4444/55/77--4444/55/77---12121212--|
D|-xxxx/xx/xx--xxxx/xx/xx---xxxxxxxx--|
A|-2222/33/55--2222/33/55---10101010--|
E|------------------------------------|


III. TAKE MY HAND

Intro prt.1:
Gtr.1
e|-------------------|
B|-------------------|
G|-999999999999999---|
D|-------------------|
A|-------------------|
E|-------------------|

Gtr.2
e|-------------------------------------------------------|
B|-------------------------------------------------------|
G|-999-1111-77-99-6-7--44444---999-1111-7-9--6-7--4444---|
D|-------------------------------------------------------|
A|-------------------------------------------------------|
E|-------------------------------------------------------|

Intro prt.2:
e|----------------------------------|
B|----------------------------------|
G|-77777-----------------------7~---|
D|-77777--77777--55555--77777--7~---|
A|-55555--77777--55555--77777--5~---|
E|--------55555--33333--55555-------|

Gtr.2:
e|---------------------------------------------|
B|---10---10---10---10-----10----10----10------|
G|-11---11---11---11----12----12----12----12---| 2x
D|---------------------------------------------|
A|---------------------------------------------|
E|---------------------------------------------|

Verse 1:Your sky seem...
Gtr.1:
e|----------------------------|
B|----------------------------|
G|-7777--7777-----------------|
D|-7777--7777--55555--77777---|
A|-5555--4444--55555--77777---|
E|-------------33333--55555---|

Gtr.2:
e|----10~---|
B|-10-------|
G|----------|
D|----------|
A|----------|
E|----------|

Pre-Chorus:You are not alone...
e|----------------|
B|----------------|
G|----------------| 2x
D|-55555--77777---|
A|-55555--77777---|
E|-33333--55555---|

Chorus:Take my hand...
e|------------------------------|
B|------------------------------|
G|-77777---------44444--22222---| 2x
D|-77777--55555--44444--22222---|
A|-55555--55555--22222--00000---|
E|--------33333-----------------|

Pre-Verse 2:
Gtr.1
e|------------------------------|
B|------------------------------|
G|-77777------------------------|
D|-77777--55555--77777--55555---|
A|-55555--55555--77777--55555---|
E|--------33333--55555--33333---|

Gtr.2:Play Intro prt.2

Verse 2:Everything's been bitter...
Gtr.1:Play Verse 1
Gtr.2:
e|----10----------------|
B|-10----10-8-7-8-10----|
G|----------------------| Repeat Many Times...
D|----------------------|
A|----------------------|
E|----------------------|


Repeat Pre-Chorus:
Repeat Chorus:

Bridge prt.1(Gtr.Solo):
Gtr.1:Play Pre-Verse 2:
Gtr.2:
e|---------------------------------------------------------------------|
B|---------------------------------------------------------------------|
G|-11/12--12-12/14-12-11--2x---11/12-12-9~---11/12--12-12/14-12-11-7~--|
D|------------------------Then-------------------------------------7~--|
A|-----------------------------------------------------------------5~--|
E|---------------------------------------------------------------------|


[ verxon n kyle_071106 ng solo:
e|-----------------------------|
B|-11-12-11-9~-11-12-11-12/14~-| 2x
G|-----------------------------|
D|-----------------------------|
A|-----------------------------|
E|-----------------------------| ]


Bridge prt.2:Take my hand,close your eyes...
Bass:
G|---------------------------------------------------------------------|
D|---------------------------------------------------------------------|
A|-5-5-5-5-----------------------------5-5-5-5-------------------------|
E|----------5-5-5-5--3-3-3-3--5-5-5-5-----------5-5-5-5--3-3-3-3--5~---|
   . . . .  . . . .  . . . .  . . . .  . . . .  . . . .  . . . .  .

[ pra skn d nka palm mute ung bass, staccato lng... ]

Gtr.1 and 2:Play Pre-Verse 2(With Heavy Palm Muting):

Repeat Chorus:

Last Chord:
e|------|
B|------|
G|-7~---|
D|-7~---|
A|-5~---|
E|------|


IV. MAGBALIK

Intro part 1:(Bass)
G|-------------|-------------|
D|-----4-4/6~--|----2--------|
A|---2---------|--0---2/4----| 2x
E|--0----------|-------------|

Intro part 2:
Guitar 1:
e|------------------------------------------|
B|------------------------------------------|
G|--99999999--44444444--66666666------------|
D|--99999999--44444444--66666666--77777777--| 2x
A|--77777777--22222222--44444444--77777777--|
E|--------------------------------55555555--|
Guitar 2
e|----7-----------|----7-----------|----7------------------------------|
B|-5-5-7-5-7/9-7--|-5-5-7-5-7/9-7--|-5-5-7-5-7/9-7-9/10-9-9/10-9-7\5---|
G|----------------|----------------|-----------------------------------|
D|----------------|----------------|-----------------------------------|
A|----------------|----------------|-----------------------------------|
E|----------------|----------------|-----------------------------------|
(continued)
e|----7-----------|----7-----------|----7------------------------------|
B|-5-5-7-5-7/9-7--|-5-5-7-5-7/9-7--|-5-5-7-5-7/9-7-9/10-9-9/12~~-------|
G|----------------|----------------|-----------------------------------|
D|----------------|----------------|-----------------------------------|
A|----------------|----------------|-----------------------------------|
E|----------------|----------------|-----------------------------------|


[ verxon k ng intro:
e|-----7------------|-----7------------|
B|---5---5--5-7/9-7-|-/-5---5--5-7/9-7-| 2x
G|------------------|------------------|
D|------------------|------------------|
A|------------------|------------------|
E|------------------|------------------|
 1st ending                           2nd ending
e|-----7-----------------------------|-----7------------------------|
B|-/-5---5--5-7/9-/10-9---9/10-9-7\5-|-/-5---5--5-7/9-/10-9-10/12~~-|
G|----------------------9------------|------------------------------|
D|-----------------------------------|------------------------------|
A|-----------------------------------|------------------------------|
E|-----------------------------------|------------------------------| ]


Verse:(Acoustic)
e|--00000000--00000000--00000000--00000000--|
B|--00000000--00000000--00000000--22222222--|
G|--11111111--44444444--66666666--22222222--|
D|--22222222--44444444--66666666--22222222--| 4x
A|--22222222--22222222--44444444------------|
E|------------------------------------------|

Refrain:
e|----------------------|----------------------|
B|----------------------|----------------------|
G|------------44444444--|------------44444444--|
D|--44444444--44444444--|--44444444--44444444--|
A|--44444444--22222222--|--44444444--22222222--|
E|--22222222------------|--22222222------------|
(continued)                                      Guitar 2:(Fill in)
e|----------------------|----------------------| |-------------|
B|----------------------|----------------------| |-------------|
G|------------44444444--|----------------------| |-------------|
D|--44444444--44444444--|--77777777--99999999--| |-------------|
A|--44444444--22222222--|--77777777--99999999--| |-----7h9-7~--|
E|--22222222------------|--55555555--77777777--| |--7h9--------|

Chorus:
(Acoustic)
e|--00000000--00000000--00000000--00000000--|
B|--00000000--00000000--00000000--22222222--|
G|--11111111--44444444--66666666--22222222--|
D|--22222222--44444444--66666666--22222222--|
A|--22222222--22222222--44444444------------|
E|------------------------------------------|
(continued)
e|------------------------------------------|
B|------------------------------------------|
G|--99999999--44444444--66666666------------|
D|--99999999--44444444--66666666--77777777--|
A|--77777777--22222222--44444444--77777777--|
E|--------------------------------55555555--|

Interlude:
Guitar 1:
e|------------------------------------------|
B|------------------------------------------|
G|--99999999--44444444--66666666------------|
D|--99999999--44444444--66666666--77777777--|
A|--77777777--22222222--44444444--77777777--|
E|--------------------------------55555555--|
Guitar 2:
e|----7-----------|----7-----------|----7------------------------------|
B|-5-5-7-5-7/9-7--|-5-5-7-5-7/9-7--|-5-5-7-5-7/9-7-9/10-9-9/10-9-7\5---|
G|----------------|----------------|-----------------------------------|
D|----------------|----------------|-----------------------------------|
A|----------------|----------------|-----------------------------------|
E|----------------|----------------|-----------------------------------|

Verse:
e|--00000000--00000000--00000000--00000000--|
B|--00000000--00000000--00000000--22222222--|
G|--11111111--44444444--66666666--22222222--|
D|--22222222--44444444--66666666--22222222--| 4x
A|--22222222--22222222--44444444------------|
E|------------------------------------------|

Refrain:
e|----------------------|----------------------|
B|----------------------|----------------------|
G|------------44444444--|------------44444444--|
D|--44444444--44444444--|--44444444--44444444--|
A|--44444444--22222222--|--44444444--22222222--|
E|--22222222------------|--22222222------------|
(continued)
e|----------------------|----------------------|
B|----------------------|----------------------|
G|------------44444444--|----------------------|
D|--44444444--44444444--|--77777777--99999999--|
A|--44444444--22222222--|--77777777--99999999--|
E|--22222222------------|--55555555--77777777--|

Chorus:
e|---------------------------------------|
B|--------------P------------------------|
G|--99999999--4-A----66666666------------|
D|--99999999--4-U----66666666--77777777--| 2x
A|--77777777--2-S----44444444--77777777--|
E|--------------E--------------55555555--|

Adlib:
Guitar 1:
e|------------------------------------------------------------------|
B|------------------------------------------------------------------|
G|--99999999--44444444------------9--9-11--11-13--13-14--13--11--9--|
D|--99999999--44444444--77777777--9--9-11--11-13--13-14--13--11--9--|
A|--77777777--22222222--77777777--7--7-9---9--11--11-12--11--9---7--|
E|----------------------55555555------------------------------------|
(continued)
e|----------------------------------------|
B|----------------------------------------|
G|--66666666--44444444--------------------|
D|--66666666--44444444--7777777777777777--|
A|--44444444--22222222--7777777777777777--|
E|----------------------5555555555555555--|
Guitar 2:
e|-------------------------------------------------7/12-121212121212--|
B|-------------------12121212-10101010-9999-777777--------------------|
G|--------6h8h9~-1111-------------------------------------------------|
D|---6h7h9------------------------------------------------------------|
A|--7-----------------------------------------------------------------|
E|--------------------------------------------------------------------|
(continued)
e|--12-1214-1416-1614-1412-12-12p11----------------------------|
B|-------------------------------------------------------------|
G|-------------------------------------------------------------|
D|-------------------------------------------------------------|
A|-------------------------------------------------------------|
E|-------------------------------------------------------------|
(continued)
e|----12-11---12-11---12-11---12-11----17-16---17-16---17-16----17-16--|
B|--12------12------12------12---------------17------17------17--------|
G|---------------------------------------------------------------------|
D|---------------------------------------------------------------------|
A|---------------------------------------------------------------------|
E|---------------------------------------------------------------------|
(continued)
e|--1212-1111----------------------------------------------------------|
B|-----------12----------------------10101010--------------------------|
G|-------------9h11-12b---9----9-9h11---------9999---------------------|
D|--------------------------11---------------------9999-7777-6h7-6-9~--|
A|-----------------------------------------------------------------7~--|
E|---------------------------------------------------------------------|

Chorus:
(Acoustic)
e|--00000000--00000000--00000000--00000000--|
B|--00000000--00000000--00000000--22222222--|
G|--11111111--44444444--66666666--22222222--|
D|--22222222--44444444--66666666--22222222--|
A|--22222222--22222222--44444444------------|
E|------------------------------------------|
(continued)
e|------------------------------------------|
B|------------------------------------------|
G|--99999999--44444444--66666666------------|
D|--99999999--44444444--66666666--77777777--|
A|--77777777--22222222--44444444--77777777--|
E|--------------------------------55555555--|

Outro:
Guitar 1:
e|------------------------------------------|
B|------------------------------------------|
G|--99999999--44444444--66666666------------|
D|--99999999--44444444--66666666--77777777--| 2x
A|--77777777--22222222--44444444--77777777--|
E|--------------------------------55555555--|
Guitar 2:
e|----7-----------|----7-----------|----7------------------------------|
B|-5-5-7-5-7/9-7--|-5-5-7-5-7/9-7--|-5-5-7-5-7/9-7-9/10-9-9/10-9-7\5---|
G|----------------|----------------|-----------------------------------|
D|----------------|----------------|-----------------------------------|
A|----------------|----------------|-----------------------------------|
E|----------------|----------------|-----------------------------------|
(continued)
e|----7-----------|----7-----------|----7------------------------------|
B|-5-5-7-5-7/9-7--|-5-5-7-5-7/9-7--|-5-5-7-5-7/9-7-9/10-9-9/12~~-------|
G|----------------|----------------|-----------------------------------|
D|----------------|----------------|-----------------------------------|
A|----------------|----------------|-----------------------------------|
E|----------------|----------------|-----------------------------------|


V. YAKAP

Intro:
Guitar 1:
e|------------------------------------------|
B|------------------------------------------|
G|--77777777--44444444----------------------|
D|--77777777--44444444--55555555--77777777--| 2x
A|--55555555--22222222--55555555--77777777--|
E|----------------------33333333--55555555--|

Guitar 2:
e|----------------------------------------------------|
B|--10101010------------------------10101010----------|
G|----------11111111--------11111111--------11111111--|
D|------------------12121212--------------------------| 3x
A|----------------------------------------------------|
E|----------------------------------------------------|
(continued)
e|---------------------------------|
B|---------------------------------|
G|--9999-7777-9999-7777-9999-7777--|
D|---------------------------------|
A|---------------------------------|
E|---------------------------------|

Verse:
Guitar 1:
(Palm Muted)
e|-------------------------|-------------------------|
B|-------------------------|-------------------------|
G|------7---7---7---7---7--|------4---4---4---4---4--|
D|------7---7---7---7---7--|------4---4---4---4---4--|
A|--5-5-5-5-5-5-5-5-5-5-5--|--2-2-2-2-2-2-2-2-2-2-2--|
E|-------------------------|-------------------------|
(continued)
e|-------------------------|-------------------------|
B|-------------------------|-------------------------|
G|-------------------------|-------------------------|
D|------4---4---4---4---4--|------5---5---5---5---5--| 4x
A|------4---4---4---4---4--|------5---5---5---5---5--|
E|--2-2-2-2-2-2-2-2-2-2-2--|--3-3-3-3-3-3-3-3-3-3-3--|

Guitar 2:
e|--2------0--|------------|--------0--|-------------|
B|--3----3----|------------|------3----|-------------|
G|--2--2------|------------|----2------|-------------|
D|--0---------|------------|--0--------|-------------| 4x
A|------------|------------|-----------|-------------|
E|------------|------------|-----------|-------------|

Chorus:
Guitar 1:
e|------------------------------------------|
B|------------------------------------------|
G|--77777777--44444444----------------------|
D|--77777777--44444444--44444444--55555555--| 2x
A|--55555555--22222222--44444444--55555555--|
E|----------------------22222222--33333333--|

Guitar 2:
e|----------------------------------------------------|
B|--10101010------------------------10101010----------|
G|----------11111111--------11111111--------11111111--|
D|------------------12121212--------------------------| 3x
A|----------------------------------------------------|
E|----------------------------------------------------|
(continued)
e|---------------------------------|
B|---------------------------------|
G|--9999-7777-9999-7777-9999-7777--|
D|---------------------------------|
A|---------------------------------|
E|---------------------------------|

Interlude:
Guitar 1:
e|------------------------------------------|
B|------------------------------------------|
G|--77777777--44444444----------------------|
D|--77777777--44444444--55555555--77777777--| 2x
A|--55555555--22222222--55555555--77777777--|
E|----------------------33333333--55555555--|

Guitar 2:
e|----------------------------------------------------|
B|--10101010------------------------10101010----------|
G|----------11111111--------11111111--------11111111--|
D|------------------12121212--------------------------| 3x
A|----------------------------------------------------|
E|----------------------------------------------------|
(continued)
e|---------------------------------|
B|---------------------------------|
G|--9999-7777-9999-7777-9999-7777--|
D|---------------------------------|
A|---------------------------------|
E|---------------------------------|

Verse:
Guitar 1:
(Palm Muted)
e|-------------------------|-------------------------|
B|-------------------------|-------------------------|
G|------7---7---7---7---7--|------4---4---4---4---4--|
D|------7---7---7---7---7--|------4---4---4---4---4--|
A|--5-5-5-5-5-5-5-5-5-5-5--|--2-2-2-2-2-2-2-2-2-2-2--|
E|-------------------------|-------------------------|
(continued)
e|-------------------------|-------------------------|
B|-------------------------|-------------------------|
G|-------------------------|-------------------------|
D|------4---4---4---4---4--|------5---5---5---5---5--| 4x
A|------4---4---4---4---4--|------5---5---5---5---5--|
E|--2-2-2-2-2-2-2-2-2-2-2--|--3-3-3-3-3-3-3-3-3-3-3--|

Guitar 2:
e|--2------0--|------------|--------0--|-------------|
B|--3----3----|------------|------3----|-------------|
G|--2--2------|------------|----2------|-------------|
D|--0---------|------------|--0--------|-------------| 4x
A|------------|------------|-----------|-------------|
E|------------|------------|-----------|-------------|

Chorus:
Guitar 1:
e|------------------------------------------|
B|------------------------------------------|
G|--77777777--44444444----------------------|
D|--77777777--44444444--44444444--55555555--| 2x
A|--55555555--22222222--44444444--55555555--|
E|----------------------22222222--33333333--|

Guitar 2:
e|----------------------------------------------------|
B|--10101010------------------------10101010----------|
G|----------11111111--------11111111--------11111111--|
D|------------------12121212--------------------------| 3x
A|----------------------------------------------------|
E|----------------------------------------------------|
(continued)
e|---------------------------------|
B|---------------------------------|
G|--9999-7777-9999-7777-9999-7777--|
D|---------------------------------|
A|---------------------------------|
E|---------------------------------|

Adlib:
Guitar 1:
e|------------------------------------------|
B|------------------------------------------|
G|--77777777--44444444----------------------|
D|--77777777--44444444--55555555--77777777--| 2x
A|--55555555--22222222--55555555--77777777--|
E|----------------------33333333--55555555--|

Guitar 2:
e|----------------------------------------------------|
B|--10101010------------------------10101010----------|
G|----------11111111--------11111111--------11111111--|
D|------------------12121212--------------------------| 3x
A|----------------------------------------------------|
E|----------------------------------------------------|
(continued)
e|---------------------------------|
B|---------------------------------|
G|--9999-7777-9999-7777-9999-7777--|
D|---------------------------------|
A|---------------------------------|
E|---------------------------------|

Bridge:
e|---------------------------------------------|
B|---------------------------------------------|
G|---------------------------------------------|
D|--9-----9-----9-----9---7-----7-----7-----7--| 3x
A|--9-----9-----9-----9---7-----7-----7-----7--|
E|--7-7-7-7-7-7-7-7-7-7---5-5-5-5-5-5-5-5-5-5--|
(continued)
e|--------------------|
B|--------------------|
G|--------------------|
D|--5555555555555555--|
A|--5555555555555555--|
E|--3333333333333333--|

Chorus:
Both Guitars:
e|--------------------------------------|
B|----P---------------------------------|
G|--7-A---44444444----------------------|
D|--7-U---44444444--44444444--55555555--|
A|--5-S---22222222--44444444--55555555--|
E|----E-------------22222222--33333333--|
(continued)
e|------------------------------------------|
B|------------------------------------------|
G|--77777777--44444444----------------------|
D|--77777777--44444444--44444444--55555555--|
A|--55555555--22222222--44444444--55555555--|
E|----------------------22222222--33333333--|

Outro:
Guitar 1:
e|------------------------------------------|
B|------------------------------------------|
G|--77777777--44444444----------------------|
D|--77777777--44444444--44444444--55555555--| 2x
A|--55555555--22222222--44444444--55555555--|
E|----------------------22222222--33333333--|

Guitar 2:
e|----------------------------------------------------|
B|--10101010------------------------10101010----------|
G|----------11111111--------11111111--------11111111--|
D|------------------12121212--------------------------| 3x
A|----------------------------------------------------|
E|----------------------------------------------------|
(continued)
e|---------------------------------|
B|---------------------------------|
G|--9999-7777-9999-7777-9999-7777--|
D|---------------------------------|
A|---------------------------------|
E|---------------------------------|

End:
Guitar 1:  Guitar 2:
e|-----|   |-----|
B|-----|   |-----|
G|--7--|   |--9--|
D|--7--|   |-----|
A|--5--|   |-----|
E|-----|   |-----|


VI. KUNG KAYA KO LANG

Intro:
Guitar 1:
e|--44444444--|--22222222--|--------------------|
B|--55555555--|--44444444--|--2222222222222222--|
G|--66666666--|--44444444--|--2222222222222222--|
D|--66666666--|--44444444--|--2222222222222222--| 2x
A|--44444444--|--22222222--|--------------------|
E|------------|------------|--------------------|
(continued)
e|------------|------------|--------------------|
B|------------|------------|--------------------|
G|--66666666--|--44444444--|--------------------|
D|--66666666--|--44444444--|--7777777777777777--| 2x
A|--44444444--|--22222222--|--7777777777777777--|
E|------------|------------|--5555555555555555--|
Guitar 2:
e|---------------------------------|---------------------------------|
B|---------------------------------|---------------------------------|
G|66666666/44444444/22222222222222-|-66666666/88888888/99999999999999|
D|xxxxxxxx/xxxxxxxx/xxxxxxxxxxxxxx-|-xxxxxxxx/xxxxxxxx/xxxxxxxxxxxxxx|2x
A|44444444/22222222/00000000000000-|-44444444/66666666/77777777777777|
E|---------------------------------|---------------------------------|

Verse :
Guitar 1:
e|--00000000--|--22222222--|--44444444--|--00000000--|
B|--00000000--|--44444444--|--55555555--|--22222222--|
G|--11111111--|--44444444--|--66666666--|--22222222--|
D|--22222222--|--44444444--|--66666666--|--22222222--|
A|--22222222--|--22222222--|--44444444--|------------|
E|------------|------------|------------|------------|
(continued)
e|--00000000--|--22222222--|------------|------------|
B|--00000000--|--44444444--|------------|------------|
G|--11111111--|--44444444--|--66666666--|------------|
D|--22222222--|--44444444--|--66666666--|--77777777--| 2x
A|--22222222--|--22222222--|--44444444--|--77777777--|
E|------------|------------|------------|--55555555--|
Guitar 2:
e|------------|------------|------------|------------|
B|------------|------------|------------|------------|
G|--9~~-------|------------|------------|------------|
D|--9~~-------|------------|------------|------------|
A|--7~~-------|------------|------------|------------|
E|------------|------------|------------|------------|
(continued)
e|------------|------------|------------|------------|
B|------------|------------|------------|------------|
G|------------|------------|--66666666--|------------|
D|------------|------------|--66666666--|--77777777--| 2x
A|------------|------------|--44444444--|--77777777--|
E|------------|------------|------------|--55555555--|

Chorus:
Guitar 1:
e|------------|------------|------------|------------|
B|------------|------------|------------|------------|
G|--99999999--|--44444444--|--66666666--|------------|
D|--99999999--|--44444444--|--66666666--|--77777777--| 4x
A|--77777777--|--22222222--|--44444444--|--77777777--|
E|------------|------------|------------|--55555555--|
Guitar 2:
e|-------------------------------------------|
B|-------------------------------------------|
G|--99999999/11111111/1313131313/1414141414--|
D|--xxxxxxxx/xxxxxxxx/xxxxxxxxxx/xxxxxxxxxx--| 4x
A|--77777777/99999999/1111111111/1212121212--|
E|-------------------------------------------|

Interlude:
Guitar 1:
e|------------|------------|--------------------|
B|------------|------------|--------------------|
G|--66666666--|--44444444--|--------------------|
D|--66666666--|--44444444--|--7777777777777777--|
A|--44444444--|--22222222--|--7777777777777777--|
E|------------|------------|--5555555555555555--|
Guitar 2:
e|----------------------------------|
B|----------------------------------|
G|-66666666/44444444/22222222222222-|
D|-xxxxxxxx/xxxxxxxx/xxxxxxxxxxxxxx-|
A|-44444444/22222222/00000000000000-|
E|----------------------------------|

Verse:
Guitar 1:
e|--00000000--|--22222222--|--44444444--|--00000000--|
B|--00000000--|--44444444--|--55555555--|--22222222--|
G|--11111111--|--44444444--|--66666666--|--22222222--|
D|--22222222--|--44444444--|--66666666--|--22222222--|
A|--22222222--|--22222222--|--44444444--|------------|
E|------------|------------|------------|------------|
(continued)
e|--00000000--|--22222222--|------------|------------|
B|--00000000--|--44444444--|------------|------------|
G|--11111111--|--44444444--|--66666666--|------------|
D|--22222222--|--44444444--|--66666666--|--77777777--|
A|--22222222--|--22222222--|--44444444--|--77777777--|
E|------------|------------|------------|--55555555--|
Guitar 2:
e|------------|------------|------------|------------|
B|------------|------------|------------|------------|
G|--9~~-------|------------|------------|------------|
D|--9~~-------|------------|------------|------------|
A|--7~~-------|------------|------------|------------|
E|------------|------------|------------|------------|
(continued)
e|------------|------------|------------|------------|
B|------------|------------|------------|------------|
G|------------|------------|--66666666--|------------|
D|------------|------------|--66666666--|--77777777--|
A|------------|------------|--44444444--|--77777777--|
E|------------|------------|------------|--55555555--|

Chorus:
Guitar 1:
e|------------|------------|------------|------------|
B|------------|------------|------------|------------|
G|--99999999--|--44444444--|--66666666--|------------|
D|--99999999--|--44444444--|--66666666--|--77777777--| 4x
A|--77777777--|--22222222--|--44444444--|--77777777--|
E|------------|------------|------------|--55555555--|
Guitar 2:
e|-------------------------------------------|
B|-------------------------------------------|
G|--99999999/11111111/1313131313/1414141414--|
D|--xxxxxxxx/xxxxxxxx/xxxxxxxxxx/xxxxxxxxxx--| 4x
A|--77777777/99999999/1111111111/1212121212--|
E|-------------------------------------------|

Adlib:
Guitar 1:
e|------------|------------|------------|------------|
B|------------|------------|------------|------------|
G|--99999999--|--44444444--|--66666666--|------------|
D|--99999999--|--44444444--|--66666666--|--77777777--| 2x
A|--77777777--|--22222222--|--44444444--|--77777777--|
E|------------|------------|------------|--55555555--|
Guitar 2: Di pa tapos kaya ito muna......
e|--1212-11-9-----|----------------------|
B|-----------12~--|--121212-12^(14)-12~--|
G|----------------|----------------------|
D|----------------|----------------------|
A|----------------|----------------------|
E|----------------|----------------------|

Bridge:
e|--0~--|--2~--|       |----------------------|
B|--2~--|--4~--|       |----------------------|
G|--2~--|--4~--|       |----------------------|
D|--2~--|--4~--| 3x    |--55555555--99999999--|
A|------|--2~--|       |--55555555--99999999--|
E|------|------|       |--33333333--77777777--|

Chorus:
Guitar 1:
e|------------|------------|------------|------------|
B|------------|------------|------------|------------|
G|--99999999--|--44444444--|--66666666--|------------|
D|--99999999--|--44444444--|--66666666--|--77777777--| 3x
A|--77777777--|--22222222--|--44444444--|--77777777--|
E|------------|------------|------------|--55555555--|
(continued)
e|-----------------------|-----------------------|
B|-----------------------|-----------------------|
G|--9-----9-----9-----9--|--4-----4-----4-----4--|
D|--9-----9-----9-----9--|--4-----4-----4-----4--|
A|--7-7-7-7-7-7-7-7-7-7--|--2-2-2-2-2-2-2-2-2-2--|
E|-----------------------|-----------------------|
(continued)                                         2x
e|-----------------------|-----------------------|
B|-----------------------|-----------------------|
G|--6-----6-----6-----6--|-----------------------|
D|--6-----6-----6-----6--|--7-----7-----7-----7--|
A|--4-4-4-4-4-4-4-4-4-4--|--7-----7-----7-----7--|
E|-----------------------|--5-5-5-5-5-5-5-5-5-5--|
Guitar 2:
e|-------------------------------------------|
B|-------------------------------------------|
G|--99999999/11111111/1313131313/1414141414--|
D|--xxxxxxxx/xxxxxxxx/xxxxxxxxxx/xxxxxxxxxx--| 5x
A|--77777777/99999999/1111111111/1212121212--|
E|-------------------------------------------|

End:
e|-----|
B|-----|
G|--9--|
D|--9--|
A|--7--|
E|-----|


VII. TAKIPSILIM

Intro part 1:
e|-----------|------------|
B|-----------|------------|
G|--6666666--|--44444444--|
D|--7777777--|--66666666--| 2x
A|--7777777--|--66666666--|
E|-----------|------------|
Then......
G|-------|
D|-------|
A|-------|
E|--5/1--|
[ Tab from: http://www.guitaretab.com/c/callalily/82254.html ]
Intro part 2:
Guitar 1:
e|-----------|------------|
B|-----------|------------|
G|--6666666--|--44444444--|
D|--7777777--|--66666666--| 2x
A|--7777777--|--66666666--|
E|-----------|------------|
Guitar 2:
e|-----------|------------|
B|-----------|------------|
G|-----------|------------|
D|--7~~------|--6~~-------| 2x
A|--7~~------|--6~~-------|
E|--5~~------|--4~~-------|

Verse:
e|-----------|------------|
B|-----------|------------|
G|--6666666--|--44444444--|
D|--7777777--|--66666666--| 4x
A|--7777777--|--66666666--|
E|-----------|------------|

Chorus:
Guitar 1:
e|-----------|------------|     |------------|------|
B|-----------|------------|     |------------|------|
G|--6666666--|--44444444--|     |--22222222--|--4~--|
D|--7777777--|--66666666--| 3x  |--44444444--|--4~--|
A|--7777777--|--66666666--|     |--44444444--|--2~--|
E|-----------|------------|     |------------|------|
Guitar 2:
e|-----------|------------|     |------------|------|
B|-----------|------------|     |------------|------|
G|-----------|------------|     |------------|--4~--|
D|--7~~------|--6~~-------| 3x  |------------|--4~--|
A|--7~~------|--6~~-------|     |------------|--2~--|
E|--5~~------|--4~~-------|     |------------|------|

Interlude:
Guitar 1:
e|-----------|------------|
B|-----------|------------|
G|--6666666--|--44444444--|
D|--7777777--|--66666666--| 2x
A|--7777777--|--66666666--|
E|-----------|------------|
Guitar 2:
e|-----------|------------|
B|-----------|------------|
G|-----------|------------|
D|--7~~------|--6~~-------| 2x
A|--7~~------|--6~~-------|
E|--5~~------|--4~~-------|

Verse:
Guitar 1:
e|-----------|------------|
B|-----------|------------|
G|--6666666--|--44444444--|
D|--7777777--|--66666666--| 4x
A|--7777777--|--66666666--|
E|-----------|------------|
Guitar 2:
(plays in the 1st,3rd and 4th round)
e|-------|-----|
B|-------|-----|
G|-------|-----|
D|--7~~--|-----|
A|--7~~--|-----|
E|--5~~--|-----|

Chorus:
Guitar 1:
e|-----------|------------|     |------------|------|
B|-----------|------------|     |------------|------|
G|--6666666--|--44444444--|     |--22222222--|--4~--|
D|--7777777--|--66666666--| 3x  |--44444444--|--4~--|
A|--7777777--|--66666666--|     |--44444444--|--2~--|
E|-----------|------------|     |------------|------|
Guitar 2:
e|-----------|------------|     |------------|------|
B|-----------|------------|     |------------|------|
G|-----------|------------|     |------------|--4~--|
D|--7~~------|--6~~-------| 3x  |--44444444--|--4~--|
A|--7~~------|--6~~-------|     |--44444444--|--2~--|
E|--5~~------|--4~~-------|     |--22222222--|------|
Guitar 3:
                                End here:
e|--5-4---|                     |--5~--|
B|-----5--|                     |------|
G|--------| repeat many times   |------|
D|--------| hanggang matapos    |------|
A|--------| ang chorus          |------|
E|--------|                     |------|

Adlib:
Guitar 1:
e|------------|------------|
B|------------|------------|
G|------------|------------|
D|--77777777--|--66666666--| 2x
A|--77777777--|--66666666--|
E|--55555555--|--44444444--|
Guitar 2:
e|--------------------------------------|
B|--------------------------------------|
G|--5555/7777/9999/1010\9999--44444444--|
D|--xxxx/xxxx/xxxx/x-x-\xxxx--xxxxxxxx--| 2x
A|--3333/5555/7777/8-8-\7777--22222222--|
E|--------------------------------------|

Bridge:
Guitar 1:
e|------------|------------|    |------------|------|
B|------------|------------|    |------------|------|
G|------------|------------|    |------------|--4~--|
D|--44444444--|--66666666--| 3x |--44444444--|--4~--|
A|--44444444--|--66666666--|    |--44444444--|--2~--|
E|--22222222--|--44444444--|    |--22222222--|------|
Guitar 2:
                                End here:
e|--5-4---|                     |--5~--|
B|-----5--|                     |------|
G|--------| repeat many times   |------|
D|--------| hanggang matapos    |------|
A|--------| ang chorus          |------|
E|--------|                     |------|

Interlude:
Guitar 1:
e|-----------|------------|
B|-----------|------------|
G|--6666666--|--44444444--|
D|--7777777--|--66666666--| 2x
A|--7777777--|--66666666--|
E|-----------|------------|
Guitar 2:
e|-----------|------------|
B|-----------|------------|
G|-----------|------------|
D|--7~~------|--6~~-------| 2x
A|--7~~------|--6~~-------|
E|--5~~------|--4~~-------|

Chorus:
e|----0-----0-----|----0-----0---|     |----0-----0--|-------------|
B|------0---------|------0-------|     |------0------|-------------|
G|--6-------------|--4-----------|     |--6----------|-------------|
D|--7-------------|--6-----------| 2x  |--7----------|-------------|
A|--7-----7-------|--6-----6-----|     |--7-----7----|-------------|
E|----------------|--------------|     |-------------|-------------|
(continued)
e|------------|------------|
B|------------|------------|
G|--22222222--|--44444444--|
D|--44444444--|--44444444--|
A|--44444444--|--22222222--|
E|------------|------------|

Then...... Huwag kang agawin sa akin...
Guitar 1:
e|------------|------------|    |------------|------|
B|------------|------------|    |------------|------|
G|------------|------------|    |------------|------|
D|--44444444--|--66666666--| 3x |--44444444--|--6~--|
A|--44444444--|--66666666--|    |--44444444--|--6~--|
E|--22222222--|--44444444--|    |--22222222--|--4---|
(continued)
e|------------|------|
B|------------|------|
G|--2~~-------|--4~--|
D|--4~~-------|--4~--|
A|--4~~-------|--2~--|
E|------------|------|
Guitar 2:
e|--------------------------------------|
B|--------------------------------------|
G|--5555/7777/9999/1010\9999--44444444--|
D|--xxxx/xxxx/xxxx/x-x-\xxxx--xxxxxxxx--| 4x
A|--3333/5555/7777/8-8-\7777--22222222--|
E|--------------------------------------|

Outro part 1:
Guitar 1:
e|-----------|------------|
B|-----------|------------|
G|--6666666--|--44444444--|
D|--7777777--|--66666666--| 2x
A|--7777777--|--66666666--|
E|-----------|------------|
Guitar 2:
e|-----------|------------|
B|-----------|------------|
G|-----------|------------|
D|--7~~------|--6~~-------| 2x
A|--7~~------|--6~~-------|
E|--5~~------|--4~~-------|

Outro part 2:
Heartbeat..... Then...
e|---------------------------------|-----------------------------------|
B|----8-----8-----8-----8-----8----|------8-----8-----8-----8-----8----|
G|--7---7-----7-----7-----7-----7--|----7---7-----7-----7-----7-----7--|
D|5-------5-----5-----5-----5------|--4-------5-----5-----5-----5------|
A|---------------------------------|-----------------------------------|
E|---------------------------------|-----------------------------------|
(continued)
e|-----------------------------------|-------------------------------|
B|------8-----8-----8-----8-----8----|-------------------------------|
G|----7---7-----7-----7-----7-----7--|--5---5-4---4----5---5-4---5---|
D|-----------------------------------|----5-----5---5----5-----5---5-|2x
A|--7-------5-----5-----5-----5------|-------------------------------|
E|-----------------------------------|-------------------------------|


VIII. SANCTUARY

Intro:
Guitar 1:
e|------------------------------------------|
B|------------------------------------------|
G|------------55555555--99999999--77777777--|
D|--55555555--55555555--99999999--77777777--| 2x
A|--55555555--33333333--77777777--55555555--|
E|--33333333--------------------------------|
Guitar 2:
e|------------------------------------------|
B|--15151515--13131313--12121212--13131313--|
G|------------------------------------------|
D|------------------------------------------| 8x
A|------------------------------------------|
E|------------------------------------------|

Verse:
Guitar 1:
e|------------|
B|------------|
G|--5~----7~--|
D|--5~----7~--| 12x
A|--3~----5~--|
E|------------|
Guitar 2:
e|------------------|
B|--8-7----8-8-7----|
G|------7--------7--|
D|------------------| repeat many times hanggang
A|------------------| matapos yong verse
E|------------------|

Refrain:
e|--------------------------------------|
B|--------------------------------------|
G|--44444444--55555555--77777777777777--|
D|--44444444--55555555--77777777777777--|
A|--22222222--33333333--55555555555555--|
E|--------------------------------------|

Chorus:
e|------------------------------------------|
B|------------------------------------------|
G|------------55555555--99999999--77777777--|
D|--55555555--55555555--99999999--77777777--| 2x
A|--55555555--33333333--77777777--55555555--|
E|--33333333--------------------------------|

Interlude:
Guitar 1:
e|------------------------------------------|
B|------------------------------------------|
G|------------55555555--99999999--77777777--|
D|--55555555--55555555--99999999--77777777--|
A|--55555555--33333333--77777777--55555555--|
E|--33333333--------------------------------|
Guitar 2:
e|------------------------------------------|
B|--15151515--13131313--12121212--13131313--|
G|------------------------------------------|
D|------------------------------------------| 4x
A|------------------------------------------|
E|------------------------------------------|

Verse:
Guitar 1:
e|------------|
B|------------|
G|--5~----7~--|
D|--5~----7~--| 4x
A|--3~----5~--|
E|------------|
Guitar 2:
e|------------------|
B|--8-7----8-8-7----|
G|------7--------7--|
D|------------------| repeat many times hanggang
A|------------------| matapos yong verse
E|------------------|

Refrain:
e|--------------------------------------|
B|--------------------------------------|
G|--44444444--55555555--77777777777777--|
D|--44444444--55555555--77777777777777--|
A|--22222222--33333333--55555555555555--|
E|--------------------------------------|

Chorus:
e|------------------------------------------|
B|------------------------------------------|
G|------------55555555--99999999--77777777--|
D|--55555555--55555555--99999999--77777777--| 2x
A|--55555555--33333333--77777777--55555555--|
E|--33333333--------------------------------|

Adlib:
Guitar 1:
e|------------------------------------------|
B|------------------------------------------|
G|------------55555555--99999999--77777777--|
D|--55555555--55555555--99999999--77777777--| 2x
A|--55555555--33333333--77777777--55555555--|
E|--33333333--------------------------------|
Guitar 2:
e|-----------------------------------------------------------------------|
B|-----------------------------------------------------------------------|
G|-----------------------------------------------------------------------|
D|-------9-10-12-14-12~~---10-10-9-10-9--------10-10-9-10-9--------------|
A|10-12---------------------------------10~~----------------10^(12)r10~--|
E|-----------------------------------------------------------------------|
(continued)
e|---------------------|
B|---------------------|
G|---------------------|
D|--10-9-7-------------|
A|---------10-9-7------|
E|----------------8~~--|
(continued)
e|---------------------------------------------------------------------|
B|---------------------------------------------------------------------|
G|--12-11----12-11----12-11-12-11----14-11------------11-12-14-12------|
D|--------12-------12-------------12-------12---12-14-------------14~~-|
A|---------------------------------------------------------------------|
E|---------------------------------------------------------------------|
(continued)
e|-----------------------------------------5-5-5-5-5-5-5-5-5------|
B|-----------------------------------------------------------8~~--|
G|--7/9------------5/7\5-4--7-5-----------------------------------|
D|-------7----------------------7-5-4-----------------------------|
A|---------7p5---7--------------------7~--------------------------|
E|-------------8--------------------------------------------------|

Chorus:
e|--33333333--00000000------------22222222--|
B|--33333333--11111111--00000000--33333333--|
G|--00000000--00000000--00000000--22222222--|
D|--00000000--22222222--22222222--00000000--| 2x
A|--22222222--33333333--22222222------------|
E|--33333333--------------------------------|

e|------------------------------------------|
B|------------------------------------------|
G|------------55555555--99999999--77777777--|
D|--55555555--55555555--99999999--77777777--| 2x
A|--55555555--33333333--77777777--55555555--|
E|--33333333--------------------------------|
Guitar 2:(plays in the first round only of chorus)
e|------------------------------------------|
B|--15151515--13131313--12121212--13131313--|
G|------------------------------------------|
D|------------------------------------------| 8x
A|------------------------------------------|
E|------------------------------------------|

Outro:
Guitar 1:
e|------------------------------------------|
B|------------------------------------------|
G|------------55555555--99999999--77777777--|
D|--55555555--55555555--99999999--77777777--| 2x
A|--55555555--33333333--77777777--55555555--|
E|--33333333--------------------------------|
Guitar 2:
e|------------------------------------------|
B|--15151515--13131313--12121212--13131313--|
G|------------------------------------------|
D|------------------------------------------| 8x
A|------------------------------------------|
E|------------------------------------------|


IX. MULI

Intro: Em - D - C (2x)

*note: Guitar 2 uses a lot of WAH...

Guitar 1: (do twice)
e|-------------------------------------------|
B|-------------------------------------------|
G|---9~~--------7~~--------5~~---------------|
D|---9~~--------7~~--------5~~---------------|
A|---7~~--------5~~--------3~~---------------|
E|-------------------------------------------|

Guitar 2:
e|-------------------------------------------------------|
B|--/8-8-------/8-8---------/8-8---------8-8h10-8--------|
G|-------9-7h9------9-9-7h9------9-7-7h9----------9-(7)--|
D|-------------------------------------------------------|
A|-------------------------------------------------------|
E|-------------------------------------------------------|
(cont'd)
e|-----------------------------------------------------------|
B|--/8-8---------/8-8---------/8-8---------8-10s12-10-8h10---|
G|-------9-9-7h9------9-9-7h9------9-7-7h9-------------------|
D|-----------------------------------------------------------|
A|-----------------------------------------------------------|
E|-----------------------------------------------------------|


Verse 1:

Guitar 1: (do four times) ^_^
e|-----------------------------------------------------------------------|
B|-----------------------------------------------------------------------|
G|---9-9-9-9-9-9-9-9--7-7-7-7-7-7-7-7--5-5-5-5-5-5-5-5-5-5-5-5-5-5--7-7--|
D|---9-9-9-9-9-9-9-9--7-7-7-7-7-7-7-7--5-5-5-5-5-5-5-5-5-5-5-5-5-5--7-7--|
A|---7-7-7-7-7-7-7-7--5-5-5-5-5-5-5-5--3-3-3-3-3-3-3-3-3-3-3-3-3-3--5-5--|
E|-----------------------------------------------------------------------|
PM   . . . . . . . .  . . . . . . . .  . . . . . . . . . . . . . .  . .
Guitar 2:
e|------7---------------8---7------7*-7h8---7--------7*-7-8-7*-7-------|
B|--------10-8-8-------------------------------------------------------|
G|--7h9-----------7h9-9---9----7h9--------9---9--7h9-------------9-----|
D|---------------------------------------------------------------------|
A|---------------------------------------------------------------------|
E|---------------------------------------------------------------------|
(cont'd)
e|----7*-7-8---7--------7*-7-8---7--------7*-7-8---7--------7*-7-8-7*-7----|
B|-------------------------------------------------------------------------|
G|7h9--------9---9--7h9--------9---9-7h9---------9---9--7h9-------------9--|
D|-------------------------------------------------------------------------|
A|-------------------------------------------------------------------------|
E|-------------------------------------------------------------------------|
(cont'd)
e|----7*-7-8---7--------7*-7-8---7--------7*-7-8---7--------7*-7-8-7*-7----|
B|-------------------------------------------------------------------------|
G|7h9--------9---9--7h9--------9---9--7h---------9---9--7h9-------------9--|
D|-------------------------------------------------------------------------|
A|-------------------------------------------------------------------------|
E|-------------------------------------------------------------------------|
(cont'd)                                                  /-release PM slowly-/
e|----7*-7-8---7--------7*-7-8---7---------7*-7-8---7---------------------|
B|------------------------------------------------------------------------|
G|7h9--------9---9--7h9--------9---9--7h9---------9---9--5-5-5-5-5-5-5-5--|
D|-------------------------------------------------------5-5-5-5-5-5-5-5--|
A|-------------------------------------------------------3-3-3-3-3-3-3-3--|
E|------------------------------------------------------------------------|
PM                                                         . . . . . . . . 

Chorus:

Guitar 1:

e|----------------------------------------------------------------------|
B|----------------------------------------------------------------------|
G|---9-9-9-9-9-9-9-9--7-7-7-7-7-7-7-7--5-5-5-5-5-5-5-5-5-5-5-5-5-5-5-5--|
D|---9-9-9-9-9-9-9-9--7-7-7-7-7-7-7-7--5-5-5-5-5-5-5-5-5-5-5-5-5-5-5-5--|
A|---7-7-7-7-7-7-7-7--5-5-5-5-5-5-5-5--3-3-3-3-3-3-3-3-3-3-3-3-3-3-3-3--|
E|----------------------------------------------------------------------| 2x

e|----------------------------------------------------------|
B|----------------------------------------------------------|
G|---9-9-9-9--9~---7-7-7-7--7~---5-5-5-5--5~-5-5-5-5--5~----|
D|---9-9-9-9--9~---7-7-7-7--7~---5-5-5-5--5~-5-5-5-5--5~----|
A|---7-7-7-7--7~---5-5-5-5--5~---3-3-3-3--3~-3-3-3-3--3~----|
E|----------------------------------------------------------| 2x
PM   . . . .      . . . .        . . . .     . . . .   Guitar 2: *Use Wah pedal here
e|-------------------------------------------------------------------------|
B|-------------------------------------------------------------------------|
G|---9-9-9-9-9-9-9-9-1111111111111111--12121212121212121212121212121212----|
D|---x-x-x-x-x-x-x-x--x-x-x-x-x-x-x-x---x-x-x-x-x-x-x-x-x-x-x-x-x-x-x-x----|
A|---7-7-7-7-7-7-7-7--9-9-9-9-9-9-9-9--10101010101010101010101010101010----|
E|-------------------------------------------------------------------------|
(cont'd)
e|---------------------------------------------------15~~~~~~~~~~~~~~~-----|
B|-------------------------------------------------------------------------|
G|---9~~~~~~~~~~~~~~-11~~~~~~~~~~~~~~--12~~~~~~~~~~~-----------------------|
D|-------------------------------------------------------------------------|
A|-------------------------------------------------------------------------|
E|-------------------------------------------------------------------------|
(cont'd)
e|---------14~~~--------------14~~~~~~---------------15~~~~~~~~~~~~~~~-----|
B|-------------------------------------------------------------------------|
G|-------------------11~~~~~~----------12~~~~~~~~~~~-----------------------|
D|---14~~~-----------------------------------------------------------------|
A|-------------------------------------------------------------------------|
E|-------------------------------------------------------------------------|
(cont'd)
e|---12--12--14--14--15--15--15--17-15-14-15-----|
B|-----------------------------------------------|
G|-----------------------------------------------|
D|-----------------------------------------------|
A|-----------------------------------------------|
E|-----------------------------------------------|
(lahat ng note d2 ay sustained, let ring... ^_^)


Interlude: (repeat Intro; may konting variation)

(same Guitar 1, but Guitar 2 changes to this...)
Guitar 2:
e|-------------------------------------------------------|
B|--/8-8-------/8-8---------/8-8---------8-8h10-8--------|
G|-------9-7h9------9-9-7h9------9-7-7h9----------9-(7)--|
D|-------------------------------------------------------|
A|-------------------------------------------------------|
E|-------------------------------------------------------|
(cont'd)
e|-----------------------------------------------------------|
B|--/8-8---------/8-8---------/8-8---------8-10s12-10-8h10---|
G|-------9-9-7h9------9-9-7h9------9-7-7h9-------------------|
D|-----------------------------------------------------------|
A|-----------------------------------------------------------|
E|-----------------------------------------------------------|

Verse 2: 
Guitar 1: (twice only) ^_^
e|-----------------------------------------------------------------------|
B|-----------------------------------------------------------------------|
G|---9-9-9-9-9-9-9-9--7-7-7-7-7-7-7-7--5-5-5-5-5-5-5-5-5-5-5-5-5-5--7-7--|
D|---9-9-9-9-9-9-9-9--7-7-7-7-7-7-7-7--5-5-5-5-5-5-5-5-5-5-5-5-5-5--7-7--|
A|---7-7-7-7-7-7-7-7--5-5-5-5-5-5-5-5--3-3-3-3-3-3-3-3-3-3-3-3-3-3--5-5--|
E|-----------------------------------------------------------------------|2x
PM   . . . . . . . .  . . . . . . . .  . . . . . . . . . . . . . .  . .
(cont'd)
e|-------------------------------------------------------------------------|
B|-------------------------------------------------------------------------|
G|---99-9-99-99-9999--7-7-7-77-77-7777--5-5-5-55-55-5555-5-5-5-55-55-5555--|
D|---99-9-99-99-9999--7-7-7-77-77-7777--5-5-5-55-55-5555-5-5-5-55-55-5555--|
A|---77-7-77-77-7777--5-5-5-55-55-5555--3-3-3-33-33-3333-3-3-3-33-33-3333--|
E|-------------------------------------------------------------------------|2x
PM      . .. .. ....      . .. .. ....      . .. .. ....     . .. .. ....
Guitar 2:
e|----7*-7-8---7--------7*-7-8---7--------7*-7-8---7--------7*-7-8-7*-7----|
B|-------------------------------------------------------------------------|
G|7h9--------9---9--7h9--------9---9--7h9--------9---9--7h9-------------9--|
D|-------------------------------------------------------------------------|
A|-------------------------------------------------------------------------|
E|-------------------------------------------------------------------------|
(cont'd)
e|----7*-7-8---7--------7*-7-8---7--------7*-7-8---7--------7*-7-8-7*-7----|
B|-------------------------------------------------------------------------|
G|7h9--------9---9--7h9--------9---9--7h9--------9---9--7h9-------------9--|
D|-------------------------------------------------------------------------|
A|-------------------------------------------------------------------------|
E|-------------------------------------------------------------------------|
(cont'd)
e|-------------------------------------------------------------------------|
B|-------------------------------------------------------------------------|
G|---99-9-99-99-9999--7-7-7-77-77-7777--5-5-5-55-55-5555-5-5-5-55-55-5555--|
D|---99-9-99-99-9999--7-7-7-77-77-7777--5-5-5-55-55-5555-5-5-5-55-55-5555--|
A|---77-7-77-77-7777--5-5-5-55-55-5555--3-3-3-33-33-3333-3-3-3-33-33-3333--|
E|-------------------------------------------------------------------------|2x
PM      . .. .. ....      . .. .. ....      . .. .. ....     . .. .. ....

Chorus:

Guitar 1:

e|----------------------------------------------------------------------|
B|----------------------------------------------------------------------|
G|---9-9-9-9-9-9-9-9--7-7-7-7-7-7-7-7--5-5-5-5-5-5-5-5-5-5-5-5-5-5-5-5--|
D|---9-9-9-9-9-9-9-9--7-7-7-7-7-7-7-7--5-5-5-5-5-5-5-5-5-5-5-5-5-5-5-5--|
A|---7-7-7-7-7-7-7-7--5-5-5-5-5-5-5-5--3-3-3-3-3-3-3-3-3-3-3-3-3-3-3-3--|
E|----------------------------------------------------------------------| 2x

e|----------------------------------------------------------|
B|----------------------------------------------------------|
G|---9-9-9-9--9~---7-7-7-7--7~---5-5-5-5--5~-5-5-5-5--5~----|
D|---9-9-9-9--9~---7-7-7-7--7~---5-5-5-5--5~-5-5-5-5--5~----|
A|---7-7-7-7--7~---5-5-5-5--5~---3-3-3-3--3~-3-3-3-3--3~----|
E|----------------------------------------------------------| 2x
PM   . . . .      . . . .        . . . .     . . . .   Guitar 2: *Use Wah pedal here
e|-------------------------------------------------------------------------|
B|-------------------------------------------------------------------------|
G|---9-9-9-9-9-9-9-9-1111111111111111--12121212121212121212121212121212----|
D|---x-x-x-x-x-x-x-x--x-x-x-x-x-x-x-x---x-x-x-x-x-x-x-x-x-x-x-x-x-x-x-x----|
A|---7-7-7-7-7-7-7-7--9-9-9-9-9-9-9-9--10101010101010101010101010101010----|
E|-------------------------------------------------------------------------|
(cont'd)
e|---------------------------------------------------15~~~~~~~~~~~~~~~-----|
B|-------------------------------------------------------------------------|
G|---9~~~~~~~~~~~~~~-11~~~~~~~~~~~~~~--12~~~~~~~~~~~-----------------------|
D|-------------------------------------------------------------------------|
A|-------------------------------------------------------------------------|
E|-------------------------------------------------------------------------|
(cont'd)
e|---------14~~~--------------14~~~~~~---------------15~~~~~~~~~~~~~~~-----|
B|-------------------------------------------------------------------------|
G|-------------------11~~~~~~----------12~~~~~~~~~~~-----------------------|
D|---14~~~-----------------------------------------------------------------|
A|-------------------------------------------------------------------------|
E|-------------------------------------------------------------------------|
(cont'd)
e|---12--12--14--14--15--15--15--17-15-14-15-----|
B|-----------------------------------------------|
G|-----------------------------------------------|
D|-----------------------------------------------|
A|-----------------------------------------------|
E|-----------------------------------------------|
(cont'd)
e|---15--12--14--14--15--15--15--17-15-14-15-17-15-14-15--|
B|--------------------------------------------------------|
G|--------------------------------------------------------|
D|--------------------------------------------------------|
A|--------------------------------------------------------|
E|--------------------------------------------------------|
(lahat ng note d2 sa gtr 2 ay sustained, let ring... ^_^)


Solo:
Guitar 1: (do twice)
e|-------------------------------------------|
B|-------------------------------------------|
G|---9~~--------7~~--------5~~---------------|
D|---9~~--------7~~--------5~~---------------|
A|---7~~--------5~~--------3~~---------------|
E|-------------------------------------------|
Bass Solo: 
G|-12----12------/12----12s14-12-11-------------------|
D|----14----14-------14-------------/14-12------------|
A|-----------------------------------------(14)-(12)--|
E|----------------------------------------------------|
(cont'd)
G|--(14)-16-14-16s17-16-17-19-17-19-/-24~-----24-24-24-24\---|
D|-----------------------------------------------------------|
A|-----------------------------------------------------------|
E|-----------------------------------------------------------|
(cont'd)
G|---0-------0--------0-------0-------0---2---0-------0---2---0-----|
D|-------7----------0---0-7-0---0-0---------------4---------------4-|
A|-----7---7---7-7------------------3---3---3---3---3---3---3---3---|
E|------------------------------------------------------------------|
(cont'd)
(may karugtong pa ung sa bass... di ko na magawa... ^_^)

Coda:
e|---------------------------------------|
B|------------33-------------------------|
G|--99--------77-------55----------------|
D|--99--xxxx--77--xxxx-55-xxxxx----------|
A|--77--xxxx--55--xxxx-33-xxxxx----------|
E|---------------------------------------|2x


Chorus:

Guitar 1:
e|----------------------------------------------------------------------|
B|----------------------------------------------------------------------|
G|---9-9-9-9-9-9-9-9--7-7-7-7-7-7-7-7--5-5-5-5-5-5-5-5-5-5-5-5-5-5-5-5--|
D|---9-9-9-9-9-9-9-9--7-7-7-7-7-7-7-7--5-5-5-5-5-5-5-5-5-5-5-5-5-5-5-5--|
A|---7-7-7-7-7-7-7-7--5-5-5-5-5-5-5-5--3-3-3-3-3-3-3-3-3-3-3-3-3-3-3-3--|
E|----------------------------------------------------------------------| 4x

Guitar 2: *Use Wah pedal here
e|-------------------------------------------------------------------------|
B|-------------------------------------------------------------------------|
G|---9-9-9-9-9-9-9-9-1111111111111111--12121212121212121212121212121212----|
D|---x-x-x-x-x-x-x-x--x-x-x-x-x-x-x-x---x-x-x-x-x-x-x-x-x-x-x-x-x-x-x-x----|
A|---7-7-7-7-7-7-7-7--9-9-9-9-9-9-9-9--10101010101010101010101010101010----|
E|-------------------------------------------------------------------------|
(cont'd)
e|---------------------------------------------------15~~~~~~~~~~~~~~~-----|
B|-------------------------------------------------------------------------|
G|---9~~~~~~~~~~~~~~-11~~~~~~~~~~~~~~--12~~~~~~~~~~~-----------------------|
D|-------------------------------------------------------------------------|
A|-------------------------------------------------------------------------|
E|-------------------------------------------------------------------------|
(cont'd)
e|---------14~~~--------------14~~~~~~---------------15~~~~~~~~~~~~~~~-----|
B|-------------------------------------------------------------------------|
G|-------------------11~~~~~~----------12~~~~~~~~~~~-----------------------|
D|---14~~~-----------------------------------------------------------------|
A|-------------------------------------------------------------------------|
E|-------------------------------------------------------------------------|
(cont'd)
e|---12--12--14--14--15--15--15--17-15-14-15-----|
B|-----------------------------------------------|
G|-----------------------------------------------|
D|-----------------------------------------------|
A|-----------------------------------------------|
E|-----------------------------------------------|
(cont'd)
e|---15--12--14--14--15--15--15--17-15-14-15-17-15-14-15--|
B|--------------------------------------------------------|
G|--------------------------------------------------------|
D|--------------------------------------------------------|
A|--------------------------------------------------------|
E|--------------------------------------------------------|


X. DREAMS

Intro:
Gtr.1
e|-3333--3333--3333--3333---|
B|-3333--3333--3333--3333---|      (Strum only  the eBG string)
G|-0000--2222--2222--0000---| 2x
D|-0000--2222--xxxx--2222---|
A|-2222--0000--2222--3333---|
E|-3333---------------------|

Gtr.2
e|---------------|
B|---------------|
G|-----4h5-4-----| 8x
D|-5h7-------5---|
A|---------------|
E|---------------|

Verse 1:As I walked...
Gtr.1
e|-----------------------|
B|-----------------------|
G|-----------------------| 4x
D|-55---77---99---1010---|
A|-55---77---99---1010---|
E|-33---55---77----8-8---|

Gtr.2
e|-33xx33x3333xx33x33--88-77-3---|
B|-33xx33x3333xx33x33--------3---|
G|-------------------------------| 4x
D|-------------------------------|
A|-------------------------------|
E|-------------------------------|
   ^^^^^^^^^^^^^^^^^^        ^

Chorus 1:Dream,it makes...
Gtr.1
e|-2~-----      -2~--------------|
B|-3~-----      -3~--------------|
G|-4~--5~- 3x   -4~--5555-7777---|
D|-4~--5~- Then -4~--5555-7777---|
A|-2~--3~-      -2~--3333-5555---|
E|--------      -----------------|

Gtr.2
e|------------------|
B|-3~--3p2/5~--3~---|
G|------------------| 4x
D|------------------|
A|------------------|
E|------------------|

Repeat Intro:

Repeat Verse 1:

Repeat Chorus 1:

Verse 3:
Play Verse 1

Chorus 2:Come to me and...
Play Chorus 1

It's time to come...
e|-3~--0~--2~--0~---|
B|-3~--1~--3~--1~---|
G|-0~--2~--4~--0~---| 4x
D|-0~--2~--4~--2~---|
A|-2~--0~--2~--3~---|
E|-3~---------------|

Outro:Repeat Intro


XI. INSANE

Intro part 1:
Guitar 1:
e|---------------------------------------------------------------|
B|----8----8---8-----7----7---7-----8----8---8-----10----10---10-|
G|-77---77---7----77---77---7----77---77---7----77----77----7----|
D|---------------------------------------------------------------|2x
A|---------------------------------------------------------------|
E|---------------------------------------------------------------|
Guitar 2: (plays after the first round of guitar 1)
e|---------|
B|---------|
G|---------|
D|--5~~~~--|
A|--5~~~~--|
E|--3~~~~--|

Intro part 2:
Guitar 1:
e|------------------------------------------|
B|------------------------------------------|
G|------------44444444--55555555--77777777--|
D|--55555555--44444444--55555555--77777777--| 2x
A|--55555555--22222222--33333333--55555555--|
E|--33333333--------------------------------|
Guitar 2:
e|-------------------------|------------------------|
B|--8888-8h10/12-15151515--|--8888-8h10/12----------|
G|-------------------------|---------------9-77-99--|
D|-------------------------|------------------------| 2x
A|-------------------------|------------------------|
E|-------------------------|------------------------|

Verse:
Guitar 1:(palm muted)
e|------------------------------------------|
B|------------------------------------------|
G|------------44444444--55555555--77777777--|
D|--55555555--44444444--55555555--77777777--| 4x
A|--55555555--22222222--33333333--55555555--|
E|--33333333--------------------------------|
Guitar 2:
e|--3~--2~--0~--2~--|
B|--3~--3~--1~--3~--|
G|--0~--4~--0~--2~--|
D|--0~--4~--2~--0~--|
A|--2~--2~--3~------|
E|--3~--------------|

Refrain:
Guitar 1:
e|----------------------|    |------------------------------|
B|----------------------|    |------------------------------|
G|----------------------|    |------------7777777777777777--|
D|--77777777--55555555--| 3x |--33333333--7777777755555555--|
A|--77777777--55555555--|    |--33333333--5555555555555555--|
E|--55555555--33333333--|    |--11111111--------------------|
Guitar 2:
e|----------------------|    |----------------------------------------|
B|----------------------|    |----------------------------------------|
G|----------------------|    |------------7777-9999-1111111-12121212--|
D|--77777777--55555555--| 3x |--33333333--xxxx-xxxx-xxxxxxx-xxxxxxxx--|
A|--77777777--55555555--|    |--33333333--5555-7777-9999999-10101010--|
E|--55555555--33333333--|    |--11111111------------------------------|

Chorus:
Both Guitars:
e|--------------------------------------|
B|----P---------------------------------|
G|----A--77777777--99999999--555555555--|
D|--5-U--77777777--99999999--555555555--|
A|--5-S--55555555--77777777--333333333--|
E|--3-E---------------------------------|
(continued)
e|--------------------------------------|
B|------------------------P-------------|
G|------------77777777--5-A--777777777--|
D|--55555555--77777777--5-U--777777777--|
A|--55555555--55555555--3-S--555555555--|
E|--33333333--------------E-------------|
(continued)
e|------------------------------------------|
B|------------------------------------------|
G|------------77777777--99999999--55555555--|
D|--55555555--77777777--99999999--55555555--|
A|--55555555--55555555--77777777--33333333--|
E|--33333333--------------------------------|
(continued)
e|--------------------------------------|
B|------------------------P-------------|
G|------------77777777--5-A--777777777--|
D|--55555555--77777777--5-U--777777777--|
A|--55555555--55555555--3-S--555555555--|
E|--33333333--------------E-------------|

Interlude:
Guitar 1:
e|------------------------------------------|
B|------------------------------------------|
G|------------44444444--55555555--77777777--|
D|--55555555--44444444--55555555--77777777--| 2x
A|--55555555--22222222--33333333--55555555--|
E|--33333333--------------------------------|
Guitar 2:
e|-------------------------|------------------------|
B|--8888-8h10/12-15151515--|--8888-8h10/12----------|
G|-------------------------|---------------9-77-99--|
D|-------------------------|------------------------| 2x
A|-------------------------|------------------------|
E|-------------------------|------------------------|

Verse:
Guitar 1:(palm muted)
e|------------------------------------------|
B|------------------------------------------|
G|------------44444444--55555555--77777777--|
D|--55555555--44444444--55555555--77777777--| 4x
A|--55555555--22222222--33333333--55555555--|
E|--33333333--------------------------------|
Guitar 2:
e|--3~--2~--0~--2~--|
B|--3~--3~--1~--3~--|
G|--0~--4~--0~--2~--|
D|--0~--4~--2~--0~--|
A|--2~--2~--3~------|
E|--3~--------------|

Refrain:
Guitar 1:
e|----------------------|    |------------------------------|
B|----------------------|    |------------------------------|
G|----------------------|    |------------7777777777777777--|
D|--77777777--55555555--| 3x |--33333333--7777777755555555--|
A|--77777777--55555555--|    |--33333333--5555555555555555--|
E|--55555555--33333333--|    |--11111111--------------------|
Guitar 2:
e|----------------------|    |----------------------------------------|
B|----------------------|    |----------------------------------------|
G|----------------------|    |------------7777-9999-1111111-12121212--|
D|--77777777--55555555--| 3x |--33333333--xxxx-xxxx-xxxxxxx-xxxxxxxx--|
A|--77777777--55555555--|    |--33333333--5555-7777-9999999-10101010--|
E|--55555555--33333333--|    |--11111111------------------------------|

Chorus:
e|-----------------------------------------------------|
B|----P------------------------------------------------|
G|----A--then slide the-77777777--99999999--555555555--|
D|--5-U--first 4 string-77777777--99999999--555555555--|
A|--5-S--above from 1st-55555555--77777777--333333333--|
E|--3-E--to 9th fret-----------------------------------|
(continued)
e|--------------------------------------|
B|------------------------P-------------|
G|------------77777777--5-A--777777777--|
D|--55555555--77777777--5-U--777777777--|
A|--55555555--55555555--3-S--555555555--|
E|--33333333--------------E-------------|
(continued)
e|------------------------------------------|
B|------------------------------------------|
G|------------77777777--99999999--55555555--|
D|--55555555--77777777--99999999--55555555--|
A|--55555555--55555555--77777777--33333333--|
E|--33333333--------------------------------|
(continued)
e|--------------------------------------|
B|------------------------P-------------|
G|------------77777777--5-A--777777777--|
D|--55555555--77777777--5-U--777777777--|
A|--55555555--55555555--3-S--555555555--|
E|--33333333--------------E-------------|

Adlib:
Guitar 1:
e|------------------------------------------|
B|------------------------------------------|
G|------------44444444--55555555--77777777--|
D|--55555555--44444444--55555555--77777777--| 2x
A|--55555555--22222222--33333333--55555555--|
E|--33333333--------------------------------|
Guitar 2:
e|--------101010-888-777----|--------101010-888-777----|
B|--888-----------------88--|--888-----------------88--|
G|-----777------------------|-----777------------------|
D|--------------------------|--------------------------|
A|--------------------------|--------------------------|
E|--------------------------|--------------------------|
(continued)
e|--------------------------|--------------------------|
B|--888----888-----888------|--121212-8888/1515151515--|
G|------777----777-----777--|--------------------------|
D|--------------------------|--------------------------|
A|--------------------------|--------------------------|
E|--------------------------|--------------------------|

Bridge:
Both Guitars:
e|----------------------|    |------------------------------|
B|----------------------|    |------------------------------|
G|----------------------|    |------------7777777777777777--|
D|--77777777--55555555--| 3x |--33333333--7777777755555555--|
A|--77777777--55555555--|    |--33333333--5555555555555555--|
E|--55555555--33333333--|    |--11111111--------------------|

Chorus:
(Acoustic)
e|--33333333--22222222--00000000--00000000--|
B|--33333333--33333333--00000000--11111111--|
G|--00000000--22222222--00000000--00000000--|
D|--00000000--00000000--22222222--22222222--|
A|--22222222------------22222222--33333333--|
E|--33333333--------------------------------|
(continued)                           Guitar 2:
e|--33333333--22222222--0------------|-----------------------------|
B|--33333333--33333333--1-P----------|-----------------------------|
G|--00000000--22222222--0-A-guitar2--|-7777-9999-1111111-12121212--|
D|--00000000--00000000--2-U-enters---|-xxxx-xxxx-xxxxxxx-xxxxxxxx--|
A|--22222222------------3-S----------|-5555-7777-9999999-10101010--|
E|--33333333--------------E----------|-----------------------------|
(continued)
e|------------------------------------------|
B|------------------------------------------|
G|------------77777777--99999999--55555555--|
D|--55555555--77777777--99999999--55555555--|
A|--55555555--55555555--77777777--33333333--|
E|--33333333--------------------------------|
(continued)
e|--------------------------------------|
B|------------------------P-------------|
G|------------77777777--5-A--777777777--|
D|--55555555--77777777--5-U--777777777--|
A|--55555555--55555555--3-S--555555555--|
E|--33333333--------------E-------------|

Outro part1:
Guitar 1:
e|------------------------------------------|
B|------------------------------------------|
G|------------44444444--55555555--77777777--|
D|--55555555--44444444--55555555--77777777--| 2x
A|--55555555--22222222--33333333--55555555--|
E|--33333333--------------------------------|
Guitar 2:
e|-------------------------|------------------------|
B|--8888-8h10/12-15151515--|--8888-8h10/12----------|
G|-------------------------|---------------9-77-99--|
D|-------------------------|------------------------| 2x
A|-------------------------|------------------------|
E|-------------------------|------------------------|

Outro part 2:
Guitar 1:
e|--------------------------|
B|--------------------------|
G|--------44----55--77-5-4--|
D|--55----44----55--77-5-4--|
A|--55----22----33--55-3-2--|
E|--33----------------------|
(continued)
e|----------------------------|
B|----------------------------|
G|--------44----55--77-5-4----|
D|--55----44----55--77-5-4-55-|
A|--55----22----33--55-3-2-55-|
E|--33---------------------33-|
Guitar 2:
e|---------------------------------------------|
B|---------------------------------------------|
G|--------------44----------55---------77-5-4--|
D|--55----------44-4-3h4-3--55-5-4h5-5-77-5-4--|
A|--55-5-4h5-4--22----------33---------55-3-2--|
E|--33-----------------------------------------|
(continued)
e|-----------------------------------------------|
B|-----------------------------------------------|
G|--------------44----------55---------77-5-4----|
D|--55----------44-4-3h4-3--55-5-4h5-5-77-5-4-55-|
A|--55-5-4h5-4--22----------33---------55-3-2-55-|
E|--33----------------------------------------33-|


XII. THE FINAL SONG

Intro Part 1:
Guitar 1
e|-----------------------------------------|
B|-----------------------------------------|
G|---77-------44---------------------------| 2x
D|---77--77---44---55----------------------|
A|---55--77---22---55----------------------|
E|-------55--------33----------------------|
     ..  ..   ..   ..

Guitar 2
e|----------------------------------------|
B|----------------------------------------|
G|-----7777----7777----7777----7777-------|
D|-----7777----7777----7777----7777-------| 2x
A|---55------55-------55-------55---------|
E|----------------------------------------|
    ......  ......  ......   .....


Intro Part 2:
Guitar 1
e|-----------------------------------------|
B|-----------------------------------------|
G|---7777----------4444--------------------| 2x
D|---7777---7777---4444---5555-------------|
A|---5555---7777---2222---5555-------------|
E|----------5555----------3333-------------|

Guitar 2
e|-------------------------------|
B|--777--------------------------|
G|------7777-9999-6666-7777~-----|  Repeat this many times
D|-------------------------------|
A|-------------------------------|
E|-------------------------------|


Verse:

Guitar 1
e|---------------------------------------|
B|---------------------------------------|
G|---7777777------------5555555----------|  2x
D|---7777777--77777777--5555555--555555--|
A|---5555555--77777777--3333333--555555--|
E|------------55555555-----------333333--|
     .......  ........  .......   ......

Guitar 2
e|-------------------------|
B|------------7----7-------|
G|-----------7--7-7--------|  repeat this many times
D|----------7----7---------|
A|-----5555----------------|
E|-------------------------|
       ....


Pre-Chorus:   "No more hot tears and pride.."

Both gtr:
e|----------------------|
B|----------------------|
G|----------------------|
D|--444444--555555------| 2x
A|--444444--555555------|
E|--222222--333333------|

Chorus: "Im moving on.."

Guitar 1
e|--------------------------------|
B|--------------------------------|
G|---7777----------4444-----------| 2x
D|---7777---7777---4444---5555----|
A|---5555---7777---2222---5555----|
E|----------5555----------3333----|


Guitar 2
e|-------------------------------|
B|--777--------------------------|  Do this many times..
G|------7777-9999-6666-7777~-----|
D|-------------------------------|
A|-------------------------------|
E|-------------------------------|


Pre-Verse: "Maybe ur were right.."
Both Guitars:
e|----------------------|
B|----------------------|
G|----------------------|
D|----9~---7~----5~-----| 2x
A|----9~---7~----5~-----|
E|----7~---5~----3~-----|

Repeat Intro part2
Repeat Verse
Repeat Pre-chorus
Repeat Chorus
Repeat Pre-Verse (many strumming w/ palm mute)
Repeat Intro part2
Repeat Pre-Verse (w/ heavy palmm mute)
Repeat Chorus

Last Chords:
e|-------|
B|-------|
G|-------|
D|---5~--|
A|---5~--|
E|---3~--|
Related for Destination Xyz tab