Song name
# A B C D E F G H I J K L M N O P Q R S T U V W X Y Z

Calle 13 - La Bala tab

INTRO

e-----------------------|
B-----------------------|
G-----------------------|
D-----------------------|  X2
A-3---1-3--1-3--1-3--6--|
E-----------------------|


e----------|----------------|--------------------|
B----------|----------------|--------------------|
G----------|----------------|--------------------|
D----------|----------------|----------5--3------|  X2
A-3--------|---------3------|--3--5-6----------3-|
E----3---1-|-3---6-7---3----|----------------3---|


e------------------------------------|
B------------------------------------|
G------------------------------------|
D-/5-8-10-8-5-3/5---3-5-3-1----------|  X2
A---------------------------3--1-3---|
E------------------------------------|

There is a missing part, when he sings ''Seria inaccesible el que alguien te mate...'' I 
hope you can help. I just made it by ear so is not 100% accurate.

Hay una parte que no puede sacar por oido, cuando Residente canta ''Seria inaccesible el 
que alguien te mate...'' Espero que me puedan ayudar, ya les adelante la mitad de la 
chamba. La saque toda por oído, así que no va a estar bien al 100%

-Kool Aid
Tap to rate this tab
 
# A B C D E F G H I J K L M N O P Q R S T U V W X Y Z