Song name
# A B C D E F G H I J K L M N O P Q R S T U V W X Y Z

Calle 13 - Muerte En Hawaii tab

Calle 13 - Muerte en Hawaii

Afinación Estándar

Intro
x4
e|--6---6---6----6---6---6--|
b|--8---8---8----8---8---8--|
g|--8---8---8----8---8---8--|
D|--8---8---8----8---8---8--|
A|--6---6---6----6---6---6--|
E|--------------------------|

Verso 1
x2
Yo he peleado con...         cargando mas de 500 ki...  Le he dado la vuelta al M...
e|--6---6---6----6---6---6--|--6---6---6----6---6---6--|--3---3---3----3---3---3--|
b|--8---8---8----8---8---8--|--6---6---6----6---6---6--|--4---4---4----4---4---4--|
g|--8---8---8----8---8---8--|--7---7---7----7---7---7--|--5---5---5----5---5---5--|
D|--8---8---8----8---8---8--|--8---8---8----8---8---8--|--5---5---5----5---5---5--|
A|--6---6---6----6---6---6--|--8---8---8----8---8---8--|--3---3---3----3---3---3--|
E|--------------------------|--------------------------|--------------------------|

He cruzao cien... y nunca me confundo
e|--4---4---4----6---6---6--------------------------------------------------------|
b|--4---4---4----6---6---6--------------------------------------------------------|
g|--5---5---5----7---7---7--------------------------------------------------------|
D|--6---6---6----8---8---8--------------------------------------------------------|
A|--6---6---6----8---8---8--------------------------------------------------------|
E|--------------------------------------------------------------------------------|

Verso 2
Respiro dentro y fuera del agua como las focas
Soy a prueba de fuego, agarro balas con la boca
Mi creatividad vuela como los aviones
Puedo construir un cerebro sin leer las instrucciones

Pre Coro 1
Hablo todos los idiomas...   Tengo mas vocabulario que cualquier diccionario
e|--4---4---4----6---6---6--|--3---3---3----3---3---3------------------------------|
b|--4---4---4----6---6---6--|--4---4---4----4---4---4------------------------------|
g|--5---5---5----7---7---7--|--5---5---5----5---5---5------------------------------|
D|--6---6---6----8---8---8--|--5---5---5----5---5---5------------------------------|
A|--6---6---6----8---8---8--|--3---3---3----3---3---3------------------------------|
E|--------------------------|------------------------------------------------------|

Tengo vista de águila...     Puedo caminar descalzo sobre clavos de hierro
e|--4---4---4----6---6---6--|--3---3---3----3---3---3------------------------------|
b|--4---4---4----6---6---6--|--4---4---4----4---4---4------------------------------|
g|--5---5---5----7---7---7--|--5---5---5----5---5---5------------------------------|
D|--6---6---6----8---8---8--|--5---5---5----5---5---5------------------------------|
A|--6---6---6----8---8---8--|--3---3---3----3---3---3------------------------------|
E|--------------------------|------------------------------------------------------|

Soy inmune a la muerte       porque siempre tengo buena suerte
e|--4---4---4----6---6---6--|--6-------5----3---3---3------------------------------|
b|--4---4---4----6---6---6--|--8-------6----4---4---4------------------------------|
g|--5---5---5----7---7---7--|--8-------7----5---5---5------------------------------|
D|--6---6---6----8---8---8--|--8-------7----5---5---5------------------------------|
A|--6---6---6----8---8---8--|--6-------5----3---3---3------------------------------|
E|--------------------------|------------------------------------------------------|

Ven conmigo a dar un pase... cuentos que contarte que Garcia Marquez...
e|--4---4---4----4---4---4--|--3---3---3----3---3---3------------------------------|
b|--4---4---4----4---4---4--|--3---3---3----3---3---3------------------------------|
g|--5---5---5----5---5---5--|--4---4---4----4---4---4------------------------------|
D|--6---6---6----6---6---6--|--5---5---5----5---5---5------------------------------|
A|--6---6---6----6---6---6--|--5---5---5----5---5---5------------------------------|
E|--------------------------|------------------------------------------------------|


Coro 
x2
Por ti...                    Es que tu me sacas lo me... Soy todo lo que soy...
e|--6---6---6----6---6---6--|--6---6---6----6---6---6--|--3---3---3----3---3---3--|
b|--8---8---8----8---8---8--|--6---6---6----6---6---6--|--4---4---4----4---4---4--|
g|--8---8---8----8---8---8--|--7---7---7----7---7---7--|--5---5---5----5---5---5--|
D|--8---8---8----8---8---8--|--8---8---8----8---8---8--|--5---5---5----5---5---5--|
A|--6---6---6----6---6---6--|--8---8---8----8---8---8--|--3---3---3----3---3---3--|
E|--------------------------|--------------------------|--------------------------|

tu eres todo lo que quiero
e|--4---4---4----6---6---6--------------------------------------------------------|
b|--4---4---4----6---6---6--------------------------------------------------------|
g|--5---5---5----7---7---7--------------------------------------------------------|
D|--6---6---6----8---8---8--------------------------------------------------------|
A|--6---6---6----8---8---8--------------------------------------------------------|
E|--------------------------------------------------------------------------------|

Verso 3
Puedo brincar la cuerda con una sola pierna
Veo en la oscuridad sin usar una linterna
Te cocino lo que quieras yo soy todo un chef
Tengo sexo 24/7 todo el mes

Verso 4
Puedo soplar las nubes grises pa' que tengas un buen día
También se como comunicarme por telepatía
Por ti cruzo la frontera sin visa
Y le saco una buena sonrisa a la Mona Lisa

Pre Coro 2
Por ti respiro antes de morirme
Por ti voy a la iglesia y escucho toda la misa sin dormirme
Sigo siendo el rey aunque no tenga reino
Mi sudor huele a perfume y nunca me despeino
Se pelear todas las artes marciales
También se como comunicarme con los animales
Mientras mas pasa el tiempo me veo mas joven
Esta canción la compuse sin escuchar como Beethoven

Coro
... 

Outro
e|--6---6---6----6---6---6--|--6---6---6----6---6---6--|--3---3---3----3---3---3--|
b|--8---8---8----8---8---8--|--6---6---6----6---6---6--|--4---4---4----4---4---4--|
g|--8---8---8----8---8---8--|--7---7---7----7---7---7--|--5---5---5----5---5---5--|
D|--8---8---8----8---8---8--|--8---8---8----8---8---8--|--5---5---5----5---5---5--|
A|--6---6---6----6---6---6--|--8---8---8----8---8---8--|--3---3---3----3---3---3--|
E|--------------------------|--------------------------|--------------------------|

e|--4---4---4----6---6---6--------------------------------------------------------|
b|--4---4---4----6---6---6--------------------------------------------------------|
g|--5---5---5----7---7---7--------------------------------------------------------|
D|--6---6---6----8---8---8--------------------------------------------------------|
A|--6---6---6----8---8---8--------------------------------------------------------|
E|--------------------------------------------------------------------------------|
Tap to rate this tab
 
# A B C D E F G H I J K L M N O P Q R S T U V W X Y Z