Song name
# A B C D E F G H I J K L M N O P Q R S T U V W X Y Z

Calle 13 - Calma Pueblo tab

Hola a todos, en esta ocasion he decido sacar a oido la cancion CALMA PUEBLO de la banda 
CAllE 13, aun falta el solo del final pero lo posteare proximamente, diviertanse ...... 
DENME SUGERENCIAS Y CALIFIQUEN!!


Guitarra 1
||-------------------------------------------------------------||
||-------------------------------------------------------------||
||----2---2---2---2---2-----4---4---4---4---4------------------||
||--4---4---4---4---4-----4---4---4---4---4--------------------||       X4
||-------------------------------------------------------------||
||2---------------------2--------------------------------------||


Guitarra 2
||----------------9---12----------||
||-------10---12------------------||
||--/11---------------------------||
||--------------------------------||       X8
||--------------------------------||
||--------------------------------||



Coro
||-----14-14-----14-14-----14---------------------------------------------------||
||-----14-14-----14-14-----14---------10--12--12b(14)b12-p-10-------------------||
||--11--------11--------11--------11----------------------------11--------------||
||------------------------------------------------------------------------------||      X6
||------------------------------------------------------------------------------||
||------------------------------------------------------------------------------||



||----------------/14--17-----||
||-----/14--17----------------||
||----------------------------||
||----------------------------||
||----------------------------||
||----------------------------||



|-----------------------------------------------||
|--2-2-2---2-2-2---2-2-2---2-2-2---2-2-2--------||
|--2-2-2---2-2-2---2-2-2---2-2-2---2-2-2--------||
|--4-4-4---4-4-4---4-4-4---4-4-4---4-4-4--------||
|-----------------------------------------------||
|-----------------------------------------------||



|---------------------------------------------||
|--2-2-2---2-2-2---2-2-2---2-2-2---2----------||
|--2-2-2---2-2-2---2-2-2---2-2-2---2----------||
|--4-4-4---4-4-4---4-4-4---4-4-4---4----------||
|---------------------------------------------||
|---------------------------------------------||



Nota: Este riff a mi parecer es un arreglo que mezcla un pedal wah con otro que 
dezconosco, sin embargo hice este pequeña frase para que sonase similar.

Guitarra 1
||-----------------------------------------------------------------------||
||-----7---7---------7---7---------7---7---------7-----7-----/10--10--10-||
||--6---------6---6-------------6---------6---6-----6--------------------||
||-------4------4------4-------------4------4----------------------------||       X3
||-----------------------------------------------------------------------||
||-----------------------------------------------------------------------||


||------------------------/9999998765---------------||
||-----7---7--------7-------------------------------||
||--6---------6-------------------------------------||
||-------4------4-----------------------------------||
||--------------------------------------------------||
||--------------------------------------------------||



Guitarra 2
||----------------9---12----------||
||-------10---12------------------||
||--/11---------------------------||
||--------------------------------||       X4
||--------------------------------||
||--------------------------------||



Coro
||-----14-14-----14-14-----14---------------------------------------------------||
||-----14-14-----14-14-----14---------10--12--12b(14)b12-p-10-------------------||
||--11--------11--------11--------11----------------------------11--------------||
||------------------------------------------------------------------------------||      X3
||------------------------------------------------------------------------------||
||------------------------------------------------------------------------------||



||-----14-14-----14-14-----14------------------------------------||
||-----14-14-----14-14-----14---------10--12--12b(14)------------||
||--11--------11--------11--------11-----------------------------||
||---------------------------------------------------------------||
||---------------------------------------------------------------||
||---------------------------------------------------------------||



Nota: esta parte tambien explota varios efectos, sin embargo estas son algunos arreglos 
que pude sacar despues de una de las partes donde podes escuchar el bajo:


Guitarra 1
||-----------------------(2)---------||
||--12/--7---------------(2)---------||
||-----------------------(2)---------||
||-----------------------------------||
||-----------------------------------||
||-----------------------------------||



Guitarra 2
||-------------------------------------------------------------------------------||
||-------------------------------------------------------------------------------||
||-----11--------9------------------11-----------------11------------11----------||
||--11----11--9----11--9--------11-----11---11------------11--9--11----11--------||
||-------------------------------------------------------------------------------||
||-------------------------------------------------------------------------------||


||-----------------------(14)---------------------------------------------------------||
||-----------------------(14)---------------------------------------------------------||
||----11-------9------------------11----------14---------15----------16--------17-----||
||-11----11--9---11--9--------11-----11--9-------11--11-----11--13-----11--13---------||
||------------------------------------------------------------------------------------||
||------------------------------------------------------------------------------------||


||---------------------------||
||-----------19--------------||
||---------------------------||
||-13--13--------------------||
||---------------------------||
||---------------------------||



||---------------------------------------------------------------------------||
||-----17-19-----17-19-----10-12------10--12--14--10--12--14-----------------||
||--18--------18--------11--------11-----------------------------------------||
||---------------------------------------------------------------------------||      X8
||---------------------------------------------------------------------------||
||---------------------------------------------------------------------------||



||----------------------------------------------------------------||
||-----/7---------7-----------------------------------------------||
||--------------------9--6-----------6--4-------------------------||
||----------------------------------------------4-------(4)-------||
||----------------------------------------------------------------||
||----------------------------------------------------------------||
                                                                                         
             H.M


||----------------/14--17-----||
||-----/14--17----------------||
||----------------------------||
||----------------------------||
||----------------------------||
||----------------------------||



Coro
||-----14-14-----14-14-----14---------------------------------------------------||
||-----14-14-----14-14-----14---------10--12--12b(14)b12-p-10-------------------||
||--11--------11--------11--------11----------------------------11--------------||
||------------------------------------------------------------------------------||      X6
||------------------------------------------------------------------------------||
||------------------------------------------------------------------------------||




||----------------/14--17-----||
||-----/14--17----------------||
||----------------------------||
||----------------------------||
||----------------------------||
||----------------------------||


El solo lo subire proximamente en esta tab
Tap to rate this tab
# A B C D E F G H I J K L M N O P Q R S T U V W X Y Z