Song name
# A B C D E F G H I J K L M N O P Q R S T U V W X Y Z

Calle Kristiansson - Walking In Memphis tab

Tabbed by: Tensby
E-mail: Tensby_94@hotmail.com
Song: Walking In Memphis
Artist: Calle Kristiansson

Note: I've been looking for tabs for this song ever since I saw the guy on Idol
but I couldn't find anything anywhere so i believe that this is the only tab available
for this song (except for the one I uploaded earlier).

Also, here is the whole song live if you want to see how he plays the rest of the song, 
I think there's a bridge in there somewhere which isn't too hard to figure out, enjoy!

~~~~~~~~~~~~~~~~~~~~~~~~~~~~~~~~~~~~~~~~~~~~~~~~
http://www.youtube.com/watch?v=nnGZWo3U7i0&hd=1
~~~~~~~~~~~~~~~~~~~~~~~~~~~~~~~~~~~~~~~~~~~~~~~~

I think this is what he's playing at the end of the version above, it sounds pretty good.


     Cadd9 Dsus    G9     Em7
e|---------------3------------------|
B|-------3-----3--------------------|
G|-----0-----2----------0-------0---|
D|---------0----------0-------2-----|
A|---3----------------------2-------|
E|-----------------3------0---------|


Capo on 6th fret

    Cadd9    Dsus     G9       Em7         Cadd9       Dsus     G9       Em7
e|--------X--------X--------X--------X--|-----------X--------X--------X--------X--|
B|-----3--X--3--3--X--3--3--X--3--3--X--|--3-----3--X--3--3--X--3--3--X--3--3--X--|
G|-----0--X--2--2--X--0--0--X--0--0--X--|--0-----0--X--2--2--X--0--0--X--0--0--X--|
D|-----2--X--0--0--X--0--0--X--2--2--X--|--2-----2--X--0--0--X--0--0--X--2--2--X--|
A|--3-----X--0-----X--------X--2-----X--|-----3-----X--0-----X--------X--2-----X--|
E|--------X--------X--3-----X--------X--|-----------X--------X--3-----X--------X--|

And so on and so forth, repeat the second column throughout the song.


[The X's means that you hit the palm of your right hand on the strings to mute them,
creating a "clicking beat" which is very easy once you get the hang of it.]


The Chords look like this:

 Cadd9   Dsus   G9     Em7
  -3-    -3-    -3-    -3-
  -3-    -3-    -3-    -3-
  -0-    -2-    -0-    -0-
  -2-    -0-    -0-    -2-
  -3-    -0-    -2-    -2-
  -0-    -0-    -3-    -0-

Notice: Keep your ring- and little finger on the 3rd fret on the bottom two strings,
chord playing does occur troughout the song.


Have fun!
/Tensby
Tap to rate this tab
# A B C D E F G H I J K L M N O P Q R S T U V W X Y Z