Song name
# A B C D E F G H I J K L M N O P Q R S T U V W X Y Z

Callejon - Fremdkorper tab

Verse always changing
e|-4-0-----------------------------------------------------------------------|
B|-5-0-----------------------------------------------------------------------|
G|-6-6-----------------------------------------------------------------------|
D|-6-6-----------------------------------------------------------------------|
A|-4-0-----------------------------------------------------------------------|
E|-x-x-----------------------------------------------------------------------|

Refrain
e|-0-0-3-0-0-0-----------------------------------------------------------------|
B|-0-3-3-0-0-0-----------------------------------------------------------------|
G|-0-0-0-0-0-0-----------------------------------------------------------------|
D|-2-2-2-2-2-2-----------------------------------------------------------------|
A|-3-3-3-2-2-2-----------------------------------------------------------------|
E|-x-x-x-0-0-0-----------------------------------------------------------------|

Bridge
e|-1-0-0-0-------------------------------------------------------------------|
B|-1-0-3-1p------------------------------------------------------------------|
G|-2-2-2-2-------------------------------------------------------------------|
D|-3-2-2-2-------------------------------------------------------------------|
A|-3-0-0-0-------------------------------------------------------------------|
E|-1-0-0-0-------------------------------------------------------------------|
Tap to rate this tab
 
# A B C D E F G H I J K L M N O P Q R S T U V W X Y Z