Song name
# A B C D E F G H I J K L M N O P Q R S T U V W X Y Z

Calling - One By One tab

One By One - The Calling
Tabbed by:Ryan B. Albert
Email:ryan_albertstein@yahoo.com

Tuning:EADGBe
  
  Intro:
e|-------7--------7--------7--------|-------7--------7--------7-------------|
B|--7h8-----8--7-----7--5-----5--7--|--7h8-----8--7-----7--5-----5--7--3/5--|
G|----------------------------------|---------------------------------------|
D|----------------------------------|---------------------------------------|
A|----------------------------------|---------------------------------------|
E|----------------------------------|---------------------------------------|

e|-------7--------7--------7--------|-------7--------7--------7-------------|
B|--7h8-----8--7-----7--5-----5--7--|--7h8-----8--7-----7--5-----5--7--3/5--|
G|----------------------------------|---------------------------------------|
D|----------------------------------|---------------------------------------|
A|----------------------------------|---------------------------------------|
E|----------------------------------|---------------------------------------|

Tap to rate this tab
# A B C D E F G H I J K L M N O P Q R S T U V W X Y Z