Song name
# A B C D E F G H I J K L M N O P Q R S T U V W X Y Z

Calling - If Only tab

Help us improve GuitareTab! Take a short survey!
Song: If Only (solo)
Artist: the Calling
Album: Two

I saw that the solo to this song has not been tabbed out by anyne EVER
so I decided to give it a try
Tuning: down half a step (Eb Ab Db Gb Bb eb)

eb-----2/3--3---3--2--2----------------------------------------------|
Bb-------------------------------0-0-0---0---------------------------|
Gb----------------------------2---------------2--2-------------------|
Db-------------------------------------------------------------------|
Ab-------------------------------------------------------------------|
Eb-------------------------------------------------------------------|

eb-------------------------0-----2/5-5-5--5-5/12-12---12-11-11------|
Bb-----0--2--3-2-3-2-3-2-3---3---------------------------------------|
Gb---2---------------------------------------------------------------|
Db-------------------------------------------------------------------|
Ab-------------------------------------------------------------------|
Eb-------------------------------------------------------------------|

eb--11/14-14--14-12-1212/10-10-10/9-9-9---3-5-5/7--5-5/3-3-3------|
Bb-------------------------------------------------------------------|
Gb-------------------------------------------------------------------|
Db-------------------------------------------------------------------|
Ab-------------------------------------------------------------------|
Eb-------------------------------------------------------------------|

Here it is, relatively simple to play and sounds AMAZING finger-picked on
acoustic
Enjoy!
Any comments, suggestions, criticisms, email me at n0b0dyelse@hotmail.com
Related for If Only tab