Guitaretab - guitar tabs
Song name
# A B C D E F G H I J K L M N O P Q R S T U V W X Y Z

Calling - Unstoppable tab

Stigmatized-The Calling
Album: Camino Palmero
Tabbed by Joe
csmith919@woh.rr.com

Tune Down  Step
(1)Eb    (4)Gb
(2)Ab    (5)Bb
(3)Db    (6)Eb

Intro
Am Dm

-----7-5---------------7--5--8--7v--------------------------------------------
-5v-------6v--3---5v----------------------------------------------------------
------------------------------------------------------------------------------
------------------------------------------------------------------------------
------------------------------------------------------------------------------
------------------------------------------------------------------------------

Verse 
Am F G

Chorus

Am Dm X3
Em
Am Dm X3
Em

Bridge

Dm Am Dm Am Em Dm Am Em

Solo
[ Tab from: http://www.guitaretab.com/c/calling/30357.html ]
-----7-5---------------7--5--8--15--------------------------------------------
-5v-------6v--3---5v----------------------------------------------------------
------------------------------------------------------------------------------
------------------------------------------------------------------------------
------------------------------------------------------------------------------
------------------------------------------------------------------------------

-----7-5---------------7--5--8--7v--------------------------------------------
-5v-------6v--3---5v----------------------------------------------------------
------------------------------------------------------------------------------
------------------------------------------------------------------------------
------------------------------------------------------------------------------
------------------------------------------------------------------------------
Related for Unstoppable tab