Calogero - Pomme C tab

INTRO/CHORUS

E||---------------------------|---------------------------| 
B||---------------------------|---------------------------| 
G||--8--8--8--8s7s8--8--8--8--|--7--7--7--7s5s7--7--7--7--| 
D||--x--x--x--x-x-x--x--x--x--|--x--x--x--x-x-x--x--x--x--| 
A||--6--6--6--6s5s6--6--6--6--|--5--5--5--5s3s5--5--5--5--| 
E||---------------------------|---------------------------|

E||--------------------------|--------------------------| 
B||--------------------------|--------------------------| 
G||--5--5--5--5--6--6--6--6--|--5--5--5--5--4--4--4--4--| 
D||--x--x--x--x--x--x--x--x--|--x--x--x--x--x--x--x--x--| 
A||--3--3--3--3--4--4--4--4--|--3--3--3--3--2--2--2--2--| 
E||--------------------------|--------------------------|

E||---------------------------|---------------------------| 
B||---------------------------|---------------------------| 
G||--8--8--8--8s7s8--8--8--8--|--7--7--7--7s5s7--7--7--7--| 
D||--x--x--x--x-x-x--x--x--x--|--x--x--x--x-x-x--x--x--x--| 
A||--6--6--6--6s5s6--6--6--6--|--5--5--5--5s3s5--5--5--5--| 
E||---------------------------|---------------------------|

E||--------------------------|--------------------------| 
B||--------------------------|--------------------------| 
G||--5--5--5--5--6--6--6--6--|--5--5--5--5--5--5--5--5--| 
D||--x--x--x--x--x--x--x--x--|--x--x--x--x--x--x--x--x--| 
A||--3--3--3--3--4--4--4--4--|--3--3--3--3--3--3--3--3--| 
E||--------------------------|--------------------------|

E||-----------------------------| 
B||-----------------------------|
G||--4--4--4--4--4--4--4--4--4--| 
D||--x--x--x--x--x--x--x--x--x--| 
A||--2--2--2--2--2--2--2--2--2--| 
E||-----------------------------|


VERSE :

E||--3--|--3--|--6--3--4----| 
B||--4--|--4--|--6--3--4----| 
G||--5--|--5--|--7--3--5----| 
D||--5--|--5--|--8--5--6----| 
A||--3--|--3--|--8--5--6----| 
E||--3--|--3--|--6--3--4----|


PRE-CHORUS :

E||-----------------------------|    E||-----------------------------|
B||-----------------------------|    B||-----------------------------|
G||--5--5--5--5--5--5--5--5--5--|    G||--5--5--5--5--5--5--5--5--5--|
D||--5--5--5--5--5--5--5--5--5--| OR D||--x--x--x--x--x--x--x--x--x--|
A||--3--3--3--3--3--3--3--3--3--|    A||--3--3--3--3--3--3--3--3--3--|
E||-----------------------------|    E||-----------------------------|
     .  .  .  .  


NOTE :

s = Slide (They are optionnals here).
. = Palm Mute.
x = Dead Note.
Tap to rate this tab
 
# A B C D E F G H I J K L M N O P Q R S T U V W X Y Z