Song name
# A B C D E F G H I J K L M N O P Q R S T U V W X Y Z

Calvary Kids - Party Like A Rockstar tab

Tab For Party Like A Rockstar
Pm - Palm Mute

e-----------------------------------|
B-----------------------------------|
G---------4-4-4-4-4-4-4-5-----------|
D-4-4-6-7---------------------------|
A-----------------------------------|
E-----------------------------------|

e-----------------------------------|
B-----------------------------------|
G---------6-6-6-6-4-4---4-----------|
D-4-4-6-7-------------6-------------|
A-----------------------------------|
E-----------------------------------|

e-10-9-----9-10-7-9----7------------|
B-------------------10---9-10-------|
G-----------------------------------|
D-----------------------------------|
A-----------------------------------|
E-----------------------------------|
Tap to rate this tab
 
# A B C D E F G H I J K L M N O P Q R S T U V W X Y Z