Song name
# A B C D E F G H I J K L M N O P Q R S T U V W X Y Z

Calvin Harris - The Girls tab

-----------------------------------------------------------------------------
		         THE GIRLS - Calvin Harris
-----------------------------------------------------------------------------
Tabbed by: Adam Donaldson
Email: hanky_d@hotmail.com

Tuning: standard

-----------------------------------------------------------------------------

hey, i saw the other tabs for this and they seem kinda off, and the song is basically 
riff all the way through.. enjoi (:

you can either play as power chords or barre chords.
the barred chords are.. Am, Bm, C#m, G#m, E.

and these are the powers,

e|-------------------------------------------------------------|
B|-------------------------------------------------------------|
G|-----------------------------------13-13-13-9-9-9------------|
D|---7-7-7-7-9-9-9-11----------------13-11-11-9-9-9------------|
A|---7-7-7-7-9-9-9-11-------11-11-11-11-11-11-7-7-7------------|
E|---5-5-5-5-7-7-7-9--------9--9--9----------------------------|

you can also play in octaves, but that better for like bass with a kinda electro drive 
(:
Tap to rate this tab
# A B C D E F G H I J K L M N O P Q R S T U V W X Y Z