Song name
# A B C D E F G H I J K L M N O P Q R S T U V W X Y Z

Calvin Harris - Im Not Alone tab

----------------------------------------------------------------------------
                      Calvin Harris-I'm not alone
----------------------------------------------------------------------------

I worked this out by myself and I'm sure this is 100% correct.

Standard tuning:E,a,d,g,b,e

Intro
-0-------------------------0-
-0-------------------------0-
-0-------------------------0-
-0---9-9-9-9-12--7-7-7-7---0-
-0--7-7-7-7-----5-5-5------0-
-0-------------------------0-

Verse
-0-------------------------0-
-0-------------------------0-
-0-------------------------0- Same riff as intro
-0---9-9-9-9-12--7-7-7-7---0-
-0--7-7-7-7-----5-5-5------0-
-0-------------------------0-

-0-------------------------0-
-0--12----15--10-----------0-
-0-------------------------0- Synth part repeated during verse
-0-------------------------0-
-0-------------------------0-
-0-------------------------0-

Chorus
-0-------------------------0-
-0--00-33-5--5-3-1-10-12-5-0-
-0-------------------------0-Main riff
-0-------------------------0-
-0--00-33-5--5-3-1-10-12-5-0-
-0-------------------------0-


And that's about it thanks for using my tab!

----------------------------------------------------------------------------

----------------------------------------------------------------------------
Tap to rate this tab
 
# A B C D E F G H I J K L M N O P Q R S T U V W X Y Z