Song name
# A B C D E F G H I J K L M N O P Q R S T U V W X Y Z

Calvin Harris - Feel So Close tab

Calvin Harris - Feel So Close
-------------------------------------------------------------------
Tabbed by: Brendan Conboy
Email: info@brendanconboy.com

Tuning: Standard

Chords for the Verse are:

Am Em G C

You can play these barred if you like.

Chorus is slightly more complex as the bass takes effect as follows.

Am B Em F# G D C C B A  Em G

Main Bass Riff
e|-------------------------------------------------------------------|
B|-------------------------------------------------------------------|
G|-------------------------------------------------------------------|
D|-------------------------------------------------------------------|
A|-----------------------------------------5-5-5-5-3-3-3-3---3-2-0---|
E|-5-5-5-5-7-7-7-7-0-0-0-0-2-2-2-2-3-3-3-3-------------------------3-|

You can always play these with barred chords. Listen to the song to gain the tempo and 
movement of notes towards the end of the rift.

Finally there is a guitar lead that comes in just before the chorus to and plays 
throughout. Its picked at first and then its strummed upwards later at just a fraction off timing.


Guitar Riff
e|-------------------------------------------------------------------|
B|---13--13--13--13--12--12--12-12--12-12-12-12--8--8--8-8-----------|
G|-12--12--12--12--12--12--12--12--9--9--9--9--5--5-5-5--------------|
D|-------------------------------------------------------------------|
A|-------------------------------------------------------------------|
E|-------------------------------------------------------------------|

Am          Em         G
I feel so close to you right now
           C
It's a force feel

I wear my heart upon my sleeve, like a big deal
Your love bows down, I mean surround me like a waterfall
And there's no stopping us right now
I feel so close to you right now

(Guitar Rift)
(Bass Rift and Guitar Rift Strum)

I feel so close to you right now
It's a force feel
I wear my heart upon my sleeve, like a big deal
Your love bows down, I mean surround me like a waterfall
And there's no stopping us right now
I feel so close to you right now

(Guitar Rift)
(Bass Rift and Guitar Rift Strum)

And there's no stopping us right now

And there's no stopping us right now

And there's no stopping us right now

I feel so close to you right now...
Tap to rate this tab
 
# A B C D E F G H I J K L M N O P Q R S T U V W X Y Z