Song name
# A B C D E F G H I J K L M N O P Q R S T U V W X Y Z

Calvin Harris - Bounce tab

-------------------------------------------------------------------------------
			     BOUNCE  Calvin Harris
-------------------------------------------------------------------------------
Tabbed by:
Koningjim

Tuning: standard

this is the melody from bounce by calvin harris the way i figured it out, enjoy :)

e|---------------------------------------------------------------------------|
B|-15-13-12-13-------------------------------------------15-13-12-13---------|
G|-------------12-14----------------12-14----------------------------12-14---|
D|-------------------14-15----14-15-------14-12------------------------------|
A|----------------------------------------------14-12------------------------|
E|---------------------------------------------------------------------------|

e|---------------------------------------||
B|-------13------------------------------||
G|-----------------12-14-----------------||
D|-14-15-----14-15-------14-12-14-12-----||
A|---------------------------------------||
E|---------------------------------------||
Tap to rate this tab
# A B C D E F G H I J K L M N O P Q R S T U V W X Y Z