Song name
# A B C D E F G H I J K L M N O P Q R S T U V W X Y Z

Calvin Harris - Feel So Close tab

vocals

e|-----------------------------------------------|
B|-----------------------------------------------|
G|-----------------------------------------------|
D|----5-7-9-7-5------0-5-5-----7-----------------|
A|----------------7---------7-----7--------------|
E|-----------------------------------------------|

e|-----------------------------------------------|
B|-----------------------------------------------|
G|-----------------------------------------------|
D|----5-7-9-7-5------0-5-5-----7-----------------|
A|----------------7---------7-----7--------------|
E|-----------------------------------------------|

e|-----------------------------------------------|
B|-----------------------------------------------|
G|-----------------------------------------------|
D|----5-7-9-7-5------0-5-5-----7-7---------------|
A|----------------7---------7-------7------------|
E|-----------------------------------------------|

e|-----------------------------------------------|
B|-----------------------------------------------|
G|-----------------------------------------------|
D|----5-7-9-7-5------0-5---5-7-9-7-5----05-------|
A|----------------7-------------------7----------|
E|-----------------------------------------------|

Any Suggestions, please email me at brian44297@gmail.com
Tap to rate this tab
# A B C D E F G H I J K L M N O P Q R S T U V W X Y Z