Song name
# A B C D E F G H I J K L M N O P Q R S T U V W X Y Z

Calvin Harris - Well Be Coming Back tab

We'll Be omin Back feat. Example - Calvin Harris

Verse tab:

E:--------------------------------------------|
A:--------------------------------------------|
D:--------------------------------------------|
G:-----------5-----4-----5-------7-----4------|
B:5-7----5-7---5-7---5-7-----5-7---5-7---55-7-|
E:--------------------------------------------|


E:-------------------------------------------------------------------|
A:-------------------------------------------------------------------|
D:-------------------------------------------------------------------|
G:-----------5-----4-----5-------7-----7------9-------7-----7------9-|
B:5-7----5-7---5-7---5-7-----5-7---7-9---9-10-----5-7---7-9---9-10---|
E:-------------------------------------------------------------------|

E:--------------------------------------|
A:--------------------------------------|
D:--------------------------------------|
G:-----9-----7-----7-------5-----4------|
B:9-10---7-9---5-7-----5-7---5-7----5-7-|
E:--------------------------------------|

Chorus tab:
E:-------------------------------------------------------|
A:-------------------------------------------------------|
D:--------------------------------10-12------13/12/10/---|
G:---------12-------12-12/14-9-12-------9-12----------12-|
B:10-12-14----12-14--------------------------------------|
E:-------------------------------------------------------|

Verse:
Em
We took it all apart
        D           Em        D
But I'm wishing I'd stayed
C                            D          Em      D
In the back room something I heard you say
G
We didn't want to call it too early
G
Now it seems a world away
C                                      D        Em
But I miss that day, are we ever gonna feel the same?

Chorus:
                   C
Standing in the light till it's over
D
Out of our minds
Em                    Am
Someone had to draw a line
                 C                D
We'll be coming back for you one day
                 Em               Am
We'll be coming back for you one day
               C
I don't even care if I know you
D
Out of our minds
Em                         Am
sad to leave it all behind
                    Am
We'll be coming back
                                  Em
We'll be coming back for you one day

Instrumental Chorus:
C D Em Am

Verse:
Em
You can see it from afar
        D           Em        D
We were riding that wave
C                            D                 Em    D
Blinded by the lights, and it's something not great
G
We didn't want to call it too early
G
Now it seems a world away
      C                                D        Em
But I miss that day, are we ever gonna feel the same?

                     C
Standing in the light till it's over
D
Out of our minds
Em                    Am
Someone had to draw a line
                 C                D
We'll be coming back for you one day
                 Em               Am
We'll be coming back for you one day
               C
I don't even care if I know you
D
Out of our minds
Em                         Am
sad to leave it all behind
                    Am
We'll be coming back
                                  Em
We'll be coming back for you one day

Bridge:

      C                         D
Gonna rise, gonna fall, getting pulled apart
         Em                             Am
And we all do it all cause it stole our hearts
      C                         D
Gonna rise, gonna fall, getting pulled apart
         Em                             Am
And we all do it all cause it stole our hearts

Chorus:

                   C
Standing in the light till it's over
D               Em
Out of our minds
                      Am
Someone had to draw a line
                 C                D
We'll be coming back for you one day
                 Em               Am
We'll be coming back for you one day
               C
I don't even care if I know you
D
Out of our minds
Em                         Am
sad to leave it all behind
                    Am
We'll be coming back
                                  Em
We'll be coming back for you one day


Tabbed by Paul Hoogland, The Netherlands
Tap to rate this tab
 
# A B C D E F G H I J K L M N O P Q R S T U V W X Y Z