Song name
# A B C D E F G H I J K L M N O P Q R S T U V W X Y Z

Calvin Harris - Well Be Coming Back tab

Intro+verse
E|-----------------------------------------------------------------------|
B|-----------------------------------------------------------------------|
G|-----------------------------------------------------------------------|
D|----5------------------4-------9-----------------------7---------------|
A|--3------------------2-------7------------------------5----------------|
E|-----------------------------------------------------------------------|
Just do one hit on each note and have a big gap between 3/5 and 2/4  also 7/9 and 5/7 
and a shorter gap between 2/4 and 7/9 also 5/7 and 3/5

Chorus+riff
E|-----------7-------------5---------------7----------8-7-5------------|
B|---1-3-5--------3-5-7---------5-7-8-------5-8------------------------|
G|---------------------------------------------------------------------|
D|---------------------------------------------------------------------|
A|---------------------------------------------------------------------|
E|---------------------------------------------------------------------|
Tap to rate this tab
# A B C D E F G H I J K L M N O P Q R S T U V W X Y Z