Song name
# A B C D E F G H I J K L M N O P Q R S T U V W X Y Z

Calvin Harris - Feel So Close tab

INTRO PIANO

e|---------------------------------------------|
B|------------------------------1--------------|
G|---5--------0--------0--------0--------------|
D|---5--------2--------0--------2--------------|
A|---3--------2--------2--------3--------------|
E|---5--------0--------3-----------------3-----|

GUITAR RIFF

e|-------------------------------------------------------------------|
B|---13--13--13--13--12--12--12--12-12-12-12-12-8--8--8--8-----------|
G|-12--12--12--12--12--12--12--12--9--9--9--9--5--5--5--5------------|
D|-------------------------------------------------------------------|
A|-------------------------------------------------------------------|
E|-------------------------------------------------------------------|

BASSLINE

e|-----------------------------------------------------------------|
B|-----------------------------------------------------------------|
G|-----------------------------------------------------------------|
D|-----------------------------------------------------------------|
A|-----------------------------------------5-5-5-5-3-3-3-3---2-0---|
E|-5-5-5-5-7-7-7-7-0-0-0-0-2-2-2-2-3-3-3-3-----------------------3-|
Tap to rate this tab
# A B C D E F G H I J K L M N O P Q R S T U V W X Y Z