Song name
# A B C D E F G H I J K L M N O P Q R S T U V W X Y Z

Calvin Harris - I Need Your Love tab

Capo 1- tab relative to capo

E|--2-----2-----------2-----2--------------------------------0--2-----------|
B|-----0--------3--------0--------3-----3-----3--------3--3-----------3-----|
G|-----------4-----4-----------4-----4-----0--------4--------------4-----4--|
D|-----------------------------------------------5--------------------------|
A|--------------------------------------------------------------------------|
E|--------------------------------------------------------------------------|



E|--2-----2-----------2-----2--------------------------------0--2--|
B|-----0--------3--------0--------3-----3-----3--------3--3--------|
G|-----------4-----4-----------4-----4-----0--------4--------------|
D|-----------------------------------------------5-----------------|
A|-----------------------------------------------------------------|
E|-----------------------------------------------------------------|



E|--2-----2-----------2-----2--------------------------------0--2-----------|
B|-----0--------3--------0--------3-----3-----3--------3--3-----------3-----|
G|-----------4-----4-----------4-----4-----0--------4--------------4-----4--|
D|-----------------------------------------------5--------------------------|
A|--------------------------------------------------------------------------|
E|--------------------------------------------------------------------------|



E|--2-----2-----------2-----2--------------------------------0--2-----5--7---|
B|-----0--------3--------0--------3-----3-----3--------3--3--------3---------|
G|-----------4-----4-----------4-----4-----0--------4------------------------|
D|-----------------------------------------------5---------------------------|
A|---------------------------------------------------------------------------|
E|---------------------------------------------------------------------------|
Tap to rate this tab
# A B C D E F G H I J K L M N O P Q R S T U V W X Y Z