Song name
# A B C D E F G H I J K L M N O P Q R S T U V W X Y Z

Cambio - Autopilot tab

autopilot by cambio
Tabbed by Timothy Salera
Tuning: (E,A,D,G,B,e)

intro:

e|---------------------------------------------------------------|
B|---------------------------------------------------------------|
G|---------------------------------------------------------------|
D|---7-----------------------------------------------------------|
A|---5------7---7-----------10-------------9---------------------|
E|----------5---5------------8-------------7---------------------|

verse and chorus: The strumming is different just listen to the song to know the strumming.

e|---------------------------------------------------------------|
B|---------------------------------------------------------------|
G|---------------------------------------------------------------|
D|-----7---------------------------------------------------------|
A|-----5----------7------------8-----------5---------------------|
E|----------------5-----------10-----------3---------------------|
Tap to rate this tab
 
# A B C D E F G H I J K L M N O P Q R S T U V W X Y Z