Song name
# A B C D E F G H I J K L M N O P Q R S T U V W X Y Z

Camel - Echoes tab

Artist: Camel
Album: Breathless
Song: Echoes

Guitar Solo Intro

-----------------------------------------------------------------------|
-----------------------------------------------------------------------|
---7-----7-----12-10-7-8-7-5-8-12-10-5----7-----7-----12-10-7-8-7-5-8--|
-----5-7--5-7-------------------------------5-7--5-7-------------------|
---------------------------------------------------------------------|
-----------------------------------------------------------------------|

-----------------------------------------------------------------------|
-----------------------------------------------------------------------|
12-10-5-3-----5--5-10-8-10-7----------5-7-8-10--14-13h14p13------------|
----------7-5---7------------8--5-7-8----------------------------------|
-----------------------------------------------------------------------|
-----------------------------------------------------------------------|
Tap to rate this tab
 
# A B C D E F G H I J K L M N O P Q R S T U V W X Y Z