Song name
# A B C D E F G H I J K L M N O P Q R S T U V W X Y Z

Camel - The Great Marsh tab

Album: The Snow Goose

Solo Guitar:

E |---------------------------------------------------------------------------|
B |---15~---14~-----15~---14~---12~-------------------------------------------|
G |-----------------------------------12~---14b(15)--12-----------------------|
D |----------------------------------------------------15-12------------------|
A |----------------------------------------------------------15-13------------|
E |----------------------------------------------------------------15-10-6-3--|

E |-----------------------------15h14p15(etc...)-----------------14b(15)r14(etc...)---|
B |---14~-12~---15h14p15(etc...)-------------------14b(15)r14(etc...)-----------------|
G |-----------------------------------------------------------------------------------|
D |-----------------------------------------------------------------------------------|
A |-----------------------------------------------------------------------------------|
E |-----------------------------------------------------------------------------------|

Synthesizer Lead:

E |------------------------------------------------------13-15-------------|
B |-----------7---7-8-10-8~--8-8-12-12~--12-12~--15-15~--------15-13-13~---|
G |---------7---7----------------------------------------------------------|
D |---5~--8----------------------------------------------------------------|
A |------------------------------------------------------------------------|
E |------------------------------------------------------------------------|

E |-------12~--12-------12---------------12---------12-14---------|
B |---15----------15-13-----15--13---15------12-12--------15-15---|
G |---------------------------------------------------------------|
D |---------------------------------------------------------------|
A |---------------------------------------------------------------|
E |---------------------------------------------------------------|

E |---14-16--12-12-16--17-14-17-21-19-----|
B |---------------------------------------|
G |--------------------14-11-14-18-16-----|
D |---------------------------------------|
A |---------------------------------------|
E |---------------------------------------|
Tap to rate this tab
# A B C D E F G H I J K L M N O P Q R S T U V W X Y Z