Song name
# A B C D E F G H I J K L M N O P Q R S T U V W X Y Z

Camel - Snow Goose tab

===========================================
          Camel - The Snow Goose
Track #6 on the 1975 album "The Snow Goose"
===========================================

Pedro Macedo, A.K.A. Linkerman
E-mail me to "o_samaritano-hellboy(at)sapo.pt"

I'd like to give credit to the unregistered user who posted
the version 1 of this tab. I used it as a basis to correct
some notes and add missing ones. I also rearranged it to
try and make it easier to read.
Comments and ratings are very much appreciated!

Standard tuning


 00:05
e|----------------------------|---------------------|
B|----------------------------|---------------------|
G|---------------6/9-6--------|-9--7p6-7--9b--rp8-9-|
D|-9----7-6-------------6/9-7-|---------------------|
A|-----------77---------------|---------------------|
E|----------------------------|---------------------|

 00:22
e|----------------------------|------------------|
B|----------------------------|------------------|
G|---------------6/9-6--------|-9--7p6-7--9b-r-9-|
D|-9----7-6-------------6/9-7-|------------------|
A|-----------77---------------|------------------|
E|----------------------------|------------------|

 00:41
e|-------------------------------------|------------------------------|
B|-----------------------------------9-|----------------------------9-|
G|-6----7-7/9h11------9/11-11\9----6---|-6----7-7h9------11b-r-9--6---|
D|---------------7---------------------|------------7-----------------|
A|-------------------------------------|------------------------------|
E|-------------------------------------|------------------------------|

 01:03
e|--------------14-14p12-|
B|-10/12--14-------------|
G|-----------------------|
D|-----------------------|
A|-----------------------|
E|-----------------------|

 01:09
e|-------------------------------------------------------------------------|
B|-14-15-14-12-----14-15-14h15p14-12-----14-15-14h15p14-12-----14-15p14----|
G|-------------14--------------------14--------------------14-----------14-|
D|-------------------------------------------------------------------------|
A|-------------------------------------------------------------------------|
E|-------------------------------------------------------------------------|

 01:23
e|-------------------------------------|------------------------------|
B|-----------------------------------9-|----------------------------9-|
G|-6----7-7/9h11------9/11-11\9----6---|-6----7-7h9-------7/9-99--6---|
D|---------------7---------------------|------------77----------------|
A|-------------------------------------|------------------------------|
E|-------------------------------------|------------------------------|

 01:45
e|--------------12/14-12-|
B|-10/12--14-------------|
G|-----------------------|
D|-----------------------|
A|-----------------------|
E|-----------------------|

 01:52
e|---------------------------------------------------------------|
B|-14-15-14h15p14-12-----14-15-14-12-----14-15-14-12-----14------|
G|-------------------14--------------14--------------14-----14-14|
D|---------------------------------------------------------------|
A|---------------------------------------------------------------|
E|---------------------------------------------------------------|

 02:05
e|---------------------------------------------------|
B|---------------------------------------------------|
G|----------------9b-r-9p7-9----7p6-6----------------|
D|-9--9h11p9-7-------------------------11-10b--9p7-9-|
A|-------------9-------------------------------------|
E|---------------------------------------------------|

 02:18                           
e|-------------------------------------------|
B|---------------------------9h10------------|
G|-------------9b-r-9p7-9---------7--6-------|
D|-9h11p9-7-----------------------------7----|
A|----------9------------------------------9-|
E|-------------------------------------------|

 02:30
e|-------------------------------------|-------------------------------|
B|-----------------------------------9-|-----------------------------9-|
G|-6----7-7/9h11------9/11-11\9----6---|-6----7-7h9------11b-r-99--6---|
D|---------------7---------------------|------------7------------------|
A|-------------------------------------|-------------------------------|
E|-------------------------------------|-------------------------------|

 02:52
e|--------------12/14-12-|
B|-10/12--14-------------|
G|-----------------------|
D|-----------------------|
A|-----------------------|
E|-----------------------|

 02:58
e|--------------------------------12---------------------------------------|
B|-14-15-14h15p14-12-----14-15-----------14-15-14h15p14-12-----14-15p14----|
G|-------------------14--------14----14--------------------14-----------14-|
D|-------------------------------------------------------------------------|
A|-------------------------------------------------------------------------|
E|-------------------------------------------------------------------------|
Tap to rate this tab
 
# A B C D E F G H I J K L M N O P Q R S T U V W X Y Z