Guitaretab - guitar tabs
Song name
# A B C D E F G H I J K L M N O P Q R S T U V W X Y Z

Camel - Snow Goose Opening tab

guitar 1

E||----------------------|----------------------|---------------------|
B||----------------------|----------------------|---------------------|
G||----------------------|-------7/9---6--------|---------------------|
D||--9--------7--6-------|----------------------|--7/9---7------------|
A||-------------------7--|--7-------------------|---------------------|
E||----------------------|----------------------|---------------------|
[ Tab from: http://www.guitaretab.com/c/camel/37301.html ]
                       _____________1____         _____________2____
                      /                          /
----------------------|------------------------||--------------------|
----------------------|------------------------||--------------------|
--9----7-6-7----------|--11h---9h7-9----------*||--(11)9---9---------|
----------------------|-----------------------*||--------------------|
----------------------|------------------------||--------------------|
----------------------|------------------------||--------------------|

---------------------|-----------------------|---------------------|
---------------------|-----------------------|-----------10--------|
---------------------|-----------------------|------7--------------|
--6--------7--9/11---|---------7h9----9h7----|---------------------|
---------------------|--7--------------------|---------------------|
---------------------|-----------------------|---------------------|

----------------------|---------------------------|---------------------||
----------------------|---------------------------|---------10----------||
----------------------|---------------------------|----7----------------||
--6--------7--9/11----|---------7h9--9--9---------|---------------------||
-------------------7--|--7------------------------|---------------------||
----------------------|---------------------------|---------------------||
Related for Snow Goose Opening tab
Advertisement will be closed in 10 seconds