Guitaretab - guitar tabs
Song name
# A B C D E F G H I J K L M N O P Q R S T U V W X Y Z

Camera Obscura - Hands Up Baby tab

Highlighted       Show chord diagrams
ubi_rex@hotmail.com

The Fm and the G get held twice as long as the other verse chords.
This is my favorite CO song.  I wonder why they hid it away.

Cm Bb Ab G Fm Fm G G

Cm            Bb
    I've been hanging round
Ab             G
Everywhere you go in town
Fm                  G
    Watching you forget me

Cm            Bb
    I want to see you crack
Ab               G
    I'm going to get you back
Fm                    G
    Put your hands up ba-by

Ab                                Eb
    You're talking to me like I'm in your debt
Fm                              G
    You don't remember things I can't forget

Cm                Bb
    Now you don't look so well
Ab                 G
Turn that gun back on yourself
Fm                      G
    And take a load off ba-by

Cm            Bb
    I've had enough this time
Ab              G
Give me back my boots you swine
Fm                      G
    It's your fault you hate me

Ab                           Eb
    I only hate you 'cause I hate myself
Fm                                  G
    It breaks my heart that I can't wish you well
[ Tab from: http://www.guitaretab.com/c/camera-obscura/176675.html ]
Cm              Bb
    Now I could end this here
Ab               G
Die and take you with me dear
Fm                 G
    It could be so easy

Cm               Bb
    I don't care what you do
Ab                G
    Iíll still be rid of you
Fm                         G
    Just make your mind up baby


Ab                             Eb
    I'll turn around I'll walk away from you
Fm                             G
    If I turn back I'll be the death of you


Solo at the end (a cello?)

 Cm      Bb       Ab        G       Fm
--------------1--------3----1-3-6p3-1----------------------|
-1-1-3-4--3-4---3--4-1---4------------4-1-4-3-1---1--------|
------------------------------------------------1----------|
-----------------------------------------------------------|
-----------------------------------------------------------|
-----------------------------------------------------------|
G
--------------1----------------------------------------------|
-0-1-3-0--1-3---3--4-----------------------------------------|
-------------------------------------------------------------|
-------------------------------------------------------------|
-------------------------------------------------------------|
-------------------------------------------------------------|
Related for Hands Up Baby tab