Song name
# A B C D E F G H I J K L M N O P Q R S T U V W X Y Z

Camera Obscura - Dory Previn tab

Camera Obscura - Dory Previn guitar solo
Tabbed by Logan


E :|---------------------------------------------------------------------|
B :|---------------------------------------------------------------------|
G :|---------------------------------------------------------------------|
D :|---------------------------------------------------------------------|
A :|-------------7--9---7--9/11-----7----11--9--------------7--9----7----|
E :|-5---5--7/9----------------------------------10----10----------------|

E :|---------------------------------------------------------------------|
B :|---------------------------------------------------------------------|
G :|------------------9-9----9----9-9h11-9----------11---11/13-13-13-----|
D :|-6/7-9-9-7--9/11------11---11----------11--9-11----9-----------------|
A :|---------------------------------------------------------------------|
E :|---------------------------------------------------------------------|

E :|---------------------------------------------------------------------|
B :|-----------------------------------14-^-14---------------------------|
G :|----13-----14--13--11--14--11-14-------------------------------------|
D :|-11----11------------------------------------------------------------|
A :|---------------------------------------------------------------------|
E :|---------------------------------------------------------------------|
Tap to rate this tab
 
# A B C D E F G H I J K L M N O P Q R S T U V W X Y Z